top separator

Home

Forum

What's New

Submit a Tab

FAQ

Links

Contact Us

Link to Us

MetalTabs.com logo

Bands

0-9

A

B

C

D

E

F

G

H

I

J

K

L

M

N

O

P

Q

R

S

T

U

V

W

X

Y

Z

Search

What

Where
 

Vile - "Persecution" Guitar Tab

Plain Text Version
More Vile Tabs

Hits: 2796
Updated: 2003-11-10 08:30:42

 

By:

BrutalGtrPlayer

sendpm.gif

email.gif

Important note
This tab is available online because we obtained explicit permission from Vile or their label.


#----------------------------------PLEASE NOTE---------------------------------#
#This file is the author's own work and represents their interpretation of the #
#song. You may only use this file for private study, scholarship, or research. #
#Unless specified otherwise, this is NOT an official tab from the band members.#
#------------------------------------------------------------------------------#

  Visit MetalTabs.com for more metal tablature
  
Band:  (Vile)
Album: (Stench of the Deceased)
Song:  (Persecution)

Copyright (c)  (Self-Financed) (1999)
Version 1.0 - (9/7/03)

Transcribed By: (Kevin Frasard)
Email:          (TheWholeFahKingShow@hotmail.com)


.  - palm mute           /  - slide up to
\  - slide down to       ~  - vibrato
h  - hammer on           b  - Bend
p  - pull off            Suffixes for bend
t  - tap                 f  - full bend    h - half bend
ph - pinched harmonic    q  - quarter bend t - tap bend
*  - see comment         ^  - Hold bend    r release bend
x  - Stuccatto           ~  - vibrato bend
,  - slight palm mute    () - ghost note, sustained note
"  - tremolo note        <> - Trill

Tunning D(1 whole step down)



                 Riff 1 (4x)
    p.m   p.m...\   p.m     p.m   p.m...\   p.m
----------------------------------------------------
----------------------------------------------------
----------------------------------------------------
------------------------------------------------sl.-
--7-----6---------------3-5-----4---------1-----4\--
----6-5---5-0-333-6-3-2-----4-3---3-0-222---3-2-----

                    (2x)
    p.m   p.m              p.m   p.m...\
-------------------------------------------------
-------------------------------------------------
-------------------------------------------------
--------------444-555555-------------------------
--7-----6--------5-------7-----6---------7666666-
----6-5---5-0--------------6-5---5-0-333---------


Riff 1 (3x)


    p.m   p.m...\   p.m     p.m   p.m
--------------------------------------
--------------------------------------
--------------------------------------
--------------------------------------
--7-----6---------------3-5-----4-----
----6-5---5-0-333-6-3-2-----4-3---3-0-


                       Riff 2 (6x)
 p.m p.m p.m p.m p.m p.m p.m p.m       p.m.\      p.m.\   p.m.\
------------------------------------------------------------------
------------------------------------------------------------------
------------------------------------------------------------------
----------------------------------sl.--------sl.------------------
----6---6---6---6---5---5---5---5-3/2--------5\6--------1-------1-
--2---2---2---2---1---1---1---1---4/3--0-0-0-6\7--0-3-2---0-3-2---

Pause for double bass
then slide into Riff 3

                       Riff 3A (2x)
  p.m.\   p.m.\   p.m.\   p.m.\   p.m.\   p.m.\   p.m.\   p.m.\
------------------------------------------------------------------
------------------------------------------------------------------
------------------------------------------------------------------
------------------------------------------------------------------
--------1-------1-------1-------1-------4-------4-------4-------4-
--0-3-2---0-3-2---0-3-2---0-3-2---0-3-2---0-3-2---0-3-2---0-3-2---



 Gtr. 2                      Riff 3B (2x)
  p.m.\   p.m.\   p.m.\   p.m.\   p.m.\   p.m.\   p.m.\   p.m.\
------------------------------------------------------------------
------------------------------------------------------------------
------------------------------------------------------------------
------------------------------------------------------------------
--------1-------1-------1-------1-------4-------4-------4-------4-
--0-3-2---0-3-2---0-3-2---0-3-2---0-3-2---0-3-2---0-3-2---0-3-2---




 Gtr. 1
  p.m.\   p.m.\   p.m.\   p.m.\   p.m.\   p.m.\   p.m.\   p.m.\
------------------------------------------------------------------
------------------------------------------------------------------
------------------------------------------------------------------
------------------------------------------------------------------
--------4-------4-------4-------4-------7-------7-------7-------7-
--3-6-5---3-6-5---3-6-5---3-6-5---3-6-5---3-6-5---3-6-5---3-6-5---


Riff 2(4x)

               Riff 4 (2x)
      p.m     p.m     p.m.............\
-----------------------------------------------
-----------------------------------------------
-----------------------------------------------
--sl.-----sl.-----sl.--------------------------
--3/2-----3/2-----6/5-----5--4--6--5--4---8--7-
--4/3--0--4/3--0--7/6--0--4--3--7--6--5--10--9-



      p.m     p.m     p.m.............\
-----------------------------------------------
-----------------------------------------------
-----------------------------------------------
--sl.-----sl.-----sl.--------------------------
--3/2-----3/2-----6/5-----5--4--6--5--4--7---8-
--4/3--0--4/3--0--7/6--0--4--3--7--6--5--9--10-

            (2x)
  p.m...\
------------------------------
------------------------------
------------------------------
------------------------------
--5--4-----6--5---5--2---4--1-
--4--3--0--7--6---7--4---6--3-


Riff 4 (1x)





      p.m     p.m     p.m.............\
-----------------------------------------------
-----------------------------------------------
-----------------------------------------------
--sl.-----sl.-----sl.--------------------------
--3/2-----3/2-----6/5-----5--4--6--5--4---8--7-
--4/3--0--4/3--0--7/6--0--4--3--7--6--5--10--9-



      p.m     p.m      p.m\        p.m.\      p.m p.m p.m p.m p.m p.m p.m p.m
-------------------------------------------------------------------------------
-------------------------------------------------------------------------------
-------------------------------------------------------------------------------
--sl.-----sl.-----sl.--------5--4--------2--3--------------------5---6---7---8-
--3/2-----3/2-----6/5--6--5--3--2--7-6-5-2--3----8---7---6---5-2---3---4---5---
--4/3--0--4/3--0--7/6--4--3--------5-4-3-------5---4---3---2-------------------


  p.m\        p.m.\
-------------------------
-------------------------
-------------------------
--------5--4--------2--3-
--6--5--3--2--7-6-5-2--3-
--4--3--------5-4-3------


Riff 2 (4x) (slightly faster, over solo)
Riff 3A (2x)
Riff 3B (2x)
Riff 3A (1x)

End

  Visit MetalTabs.com for more metal tablature

bottom separator

Contact Us | Privacy Policy | Disclaimer | Legal Notice
Copyright © 2001-2014 MetalTabs.com. All Rights Reserved.