top separator

Home

Forum

What's New

Submit a Tab

FAQ

Links

Contact Us

Link to Us

MuSpy.com

MetalTabs.com logo

Bands

0-9

A

B

C

D

E

F

G

H

I

J

K

L

M

N

O

P

Q

R

S

T

U

V

W

X

Y

Z

Search

What

Where
 

Evenfall - "Still in the Grey Dying" Guitar Tab

Plain Text Version
More Evenfall Tabs

Hits: 4423
Rated: 5.00 out of 5 (1 vote)
Updated: 2003-11-10 08:26:11

 

By:

Darkenelf

sendpm.gif

email.gif

Important note
We did our best to reach Evenfall and ask for their permission to publish this tab. Unfortunately they did not respond to our requests or we could not find a way to contact them. This tab is available online until Evenfall tells us to take it down.


#----------------------------------PLEASE NOTE---------------------------------#
#This file is the author's own work and represents their interpretation of the #
#song. You may only use this file for private study, scholarship, or research. #
#Unless specified otherwise, this is NOT an official tab from the band members.#
#------------------------------------------------------------------------------#

  Visit MetalTabs.com for more metal tablature
  
Band: Evenfall
Album: Still in the grey dying...
Song: Still in the grey dying
Tabbed by: Martijn Wietsma
Tab Date: 06-09-2003
Email: Northerland@yahoo.co.uk

Standard E Tuning

_ = stop note

(long keyboard part)

riff A (0:50)
|---------------------------------------------------------|
|---------------------------------------------------------|
|---------------------------------------------------------|
|-7--8------7--8------7--8-------7--8---------------------|
|-5--6------5--6------5--6-------5--6---------------------|
|----_---------_---------_----------_---------------------|

riff B (1:04)
|---------------------------------------------------------|
|---------------------------------------------------------|
|---------------------------------------------------------|
|-7--/8--5----7--/8--5----7--/8--5----7--/8--5------------|
|-5--/6--3----5--/6--3----5--/6--3----5--/6--3------------|
|---------------------------------------------------------|
						(2x)
riff C (1:26)
|---------------------------------------------------------|
|---------------------------------------------------------|
|----------------5----------------------------------------|
|---7-8-7----7-8------7-8-7-----7-8-7---------------------|
|-5--------5--------5--------10---------------------------|
|---------------------------------------------------------|
p.m..................................

|---------------------------------------------------------|
|---------------------------------------------------------|
|----------------5----------------------------------------|
|---7-8-7----7-8------7-8-7--5----------------------------|
|-5--------5--------5----------8-7~-----------------------|
|---------------------------------------------------------|
 p.m.......................			(4x)

riff D (1:52)
|---------------------------------------------------------|
|---------------------------------------------------------|
|---------------------------------------------------------|
|---------------------------------------------------------|
|-5-------5----5-------5--------3--------3--------5-------|
|-3---0h3-3----3---0h3-3----0h3-1----0h3-1----0h3-3-------|
      x x          x x      x x      x x      x x
						(1x)
riff E (2:41)
|---------------------------------------------------------|
|---------------------------------------------------------|
|---------------------------------------------------------|
|---------------------------------------------------------|
|-55555555------------------------------------------------|
|-33333333------------------------------------------------|
 p.m......					(1x)

riff F
|---------------------------------------------------------|
|---------------------------------------------------------|
|---------------------------------------------------------|
|-5-------------------------------------------------------|
|-3---6---8---5-3---5-------------------------------------|
|-----4---6---3-1---3-------------------------------------|
						(2x)
repeat riff A 4x
repeat riff B 8x
repeat riff C 4x (3:46)
repeat riff D 1x

riff G (hardly to explain how you play it)
|---------------------------------------------------------|
|---------------------------------------------------------|
|---------------------------------------------------------|
|---------------------------------------------------------|
|-55-55-55-55-55-55-55-55--55-55-55-55-55-55-55-55--------|
|-33-33-33-33-33-33-33-33--33-33-33-33-33-33-33-33--------|
 p.m...............................................

riff H
|---------------------------------------------------------|
|---------------------------------------------------------|
|---------------------------------------------------------|
|---------------------------------------------------------|
|-33-33-33-33-33-33-33-33--33-33-33-33-33-33-33-33--------|
|-11-11-11-11-11-11-11-11--11-11-11-11-11-11-11-11--------|
 p.m...............................................

repeat riff G 2x

(keyboard till end of song)

  Visit MetalTabs.com for more metal tablature

bottom separator

Contact Us | Privacy Policy | Disclaimer | Legal Notice
Copyright © 2001-2014 MetalTabs.com. All Rights Reserved.