top separator

Home

Forum

What's New

Submit a Tab

FAQ

Links

Contact Us

Link to Us

MetalTabs.com logo

Bands

0-9

A

B

C

D

E

F

G

H

I

J

K

L

M

N

O

P

Q

R

S

T

U

V

W

X

Y

Z

Search

What

Where
 

Cruachan - "Susie Moran" Guitar Tab

Plain Text Version
More Cruachan Tabs

Hits: 4242
Rated: 5.00 out of 5 (3 votes)
Updated: 2003-11-10 07:51:54

 

By:

Darkenelf

sendpm.gif

email.gif

Important note
This tab is available online because we obtained explicit permission from Cruachan or their label.


#----------------------------------PLEASE NOTE---------------------------------#
#This file is the author's own work and represents their interpretation of the #
#song. You may only use this file for private study, scholarship, or research. #
#Unless specified otherwise, this is NOT an official tab from the band members.#
#------------------------------------------------------------------------------#

  Visit MetalTabs.com for more metal tablature
  
Band: Cruachan
Album: Folk-Lore
Song: Susie Moran
Tabbed by: Martijn Wietsma
Tab Date: 06-09-2003
Email: Northerland@yahoo.com.uk

Standard E Tuning

riff A (acoustic)
|-------------------------------------------------------|
|-------------------------------------------------------|
|-------------------------------------------------------|
|---5-5----5-5----5-----5-5----5-5----5-----------------|
|-3------3------3-----3------3------3-------------------|
|-------------------------------------------------------|

|-------------------------------------------------------|
|-------------------------------------------------------|
|-------------------------------------------------------|
|---3-3----3-3----3-------------------------------------|
|-1------1------1------5-5----5-5----5------------------|
|--------------------3------3------3--------------------|
						(4x)
riff B (acoustic) (0:16)
|-------------------------------------------------------|
|-----4h---------4h---------3h---------3h---------------|
|---5----5-----5----5-----5----5-----5----5-------------|
|-5----------5----------5----------5--------------------|
|-------------------------------------------------------|
|-------------------------------------------------------|
						(2x)
riff C (acoustic) (0:34)
|-----------------------------------------------------------|
|---------4h-------------4h-------------3h-------------3h---|
|-------5----5---------5----5---------5----5---------5----5-|
|---5--------------5--------------5--------------5----------|
|-3---3----------3---3----------3---3----------3---3--------|
|-----------------------------------------------------------|
						(4x)
riff D (acoustic under riff C)
|-------------------------------------------------------|
|-------------------------------------------------------|
|-------------------------------------------------------|
|---------------------------------------1~--------------|
|-3~---1~--------(1)-3~-------3~---1~--------(5)-3~-----|
|-----------3~------------------------------------------|

repeat riff B 2x
repeat riff C+D 4x

riff E (solo) (2:40) (distortion)
|-------------------------------------------------------|
|-------------------------------------------------------|
|-5-7~--8p7---------8-7-5~------------------------------|
|-----------8~---5~-------------------------------------|
|-------------------------------------------------------|
|-------------------------------------------------------|
						(8x)
repeat riff A 1x

  Visit MetalTabs.com for more metal tablature

bottom separator

Contact Us | Privacy Policy | Disclaimer | Legal Notice
Copyright © 2001-2014 MetalTabs.com. All Rights Reserved.