top separator

Home

Forum

What's New

Submit a Tab

FAQ

Links

Contact Us

Link to Us

MetalTabs.com logo

Bands

0-9

A

B

C

D

E

F

G

H

I

J

K

L

M

N

O

P

Q

R

S

T

U

V

W

X

Y

Z

Search

What

Where
 

Cruachan - "Ride On" Guitar Tab

Plain Text Version
More Cruachan Tabs

Hits: 8388
Rated: 3.86 out of 5 (7 votes)
Updated: 2003-11-10 07:51:17

 

By:

Darkenelf

sendpm.gif

email.gif

Important note
This tab is available online because we obtained explicit permission from Cruachan or their label.


#----------------------------------PLEASE NOTE---------------------------------#
#This file is the author's own work and represents their interpretation of the #
#song. You may only use this file for private study, scholarship, or research. #
#Unless specified otherwise, this is NOT an official tab from the band members.#
#------------------------------------------------------------------------------#

  Visit MetalTabs.com for more metal tablature
  
Band: Cruachan
Album: Folk-Lore
Song: Ride on
Tabbed by: Martijn Wietsma
Tab Date: 06-09-2003
Email: Northerland@yahoo.com.uk

Standard E Tuning

Intro
Riff A (flute solo)
|---------------------10--10h13p12-10------------------13-10~--|
|------------------10-----------------10-8--8h10h12-13---------|
|-5-7~--7p5h7-/-10---------------------------------------------|
|--------------------------------------------------------------|
|--------------------------------------------------------------|
|--------------------------------------------------------------|
							(2x)

riff B (acoustic guitar) (0:14)
|--------------------------------------------------------------|
|--------------------------------------------------------------|
|---------7----------7----------3---------3--------------------|
|---7---7------7---7------3---3-----3---3----------------------|
|-5---5------5---5------1---1-----1---1------------------------|
|--------------------------------------------------------------|

|--------------------------------------------------------------|
|--------------------------------------------------------------|
|---------5----------5-----------7----------7------------------|
|---5---5------5---5-------7---7------7---7--------------------|
|-3---3------3---3-------5---5------5---5----------------------|
|--------------------------------------------------------------|
							(8x)
riff C joins in (0:41)
|--------------------------------------------------------------|
|--------------------------------------------------------------|
|--------------------------------------------------------------|
|--------------------------------------------------------------|
|-5~---3~---1~---3~------5~------------------------------------|
|--------------------------------------------------------------|
							(4x)
riff D joins in (cello??) (0:56)
|--------------------------------------------------------------|
|-6~---5-3~--6-5~--5-6-5-3-3~----------------------------------|
|--------------------------------------------------------------|
|--------------------------------------------------------------|
|--------------------------------------------------------------|
|--------------------------------------------------------------|
							(2x)
repeat riff B+C 2x
repeat riff B+C+D 2x

riff E (chords) (2:19)
|--------------------------------------------------------------|
|--------------------------------------------------------------|
|--------^-----------------------------------------------------|
|-7----5--3----5----7------------------------------------------|
|-5----3--1----3----5------------------------------------------|
|--------------------------------------------------------------|
							(4x)
riff F (solo) (2:46) (distortion)
|---------------------10--10h13p12-10------------------13-10~--|
|------------------10-----------------10-8--8h10h12-13---------|
|-5-7~--7p5h7-/-10---------------------------------------------|
|--------------------------------------------------------------|
|--------------------------------------------------------------|
|--------------------------------------------------------------|
							(2x)
repeat riff E+C together 4x
repeat riff E+C+D together 2x

riff F (3:42)
|--------------------------------------------------------------|
|--------------------------------------------------------------|
|--------------------------------------------------------------|
|-7----7---7-7--55-55-5--3----3---3-3--33-33-3-----------------|
|-5-55-5-5-5-5--33-33-3--1-11-1-1-1-1--11-11-1-----------------|
|--------------------------------------------------------------|
    xx   x                 xx   x
|--------------------------------------------------------------|
|--------------------------------------------------------------|
|--------------------------------------------------------------|
|-5----5-----------5/7--5/7--5/7-------------------------------|
|-3-33-3--5-5---5--3/5--3/5--3/5-------------------------------|
|---------3-3-3-3----------------------------------------------|
    xx        x 					(4x)

riff G (4:20) (end riff)
|--------------------------------------------------------------|
|--------------------------------------------------------------|
|--------------------------------------------------------------|
|-7----7---7-7--55-55-5--3----3---3-3--33-33-3---5--3--7-------|
|-5-55-5-5-5-5--33-33-3--1-11-1-1-1-1--11-11-1---3--1--5-------|
|--------------------------------------------------------------|
    xx   x                 xx   x

  Visit MetalTabs.com for more metal tablature

bottom separator

Contact Us | Privacy Policy | Disclaimer | Legal Notice
Copyright © 2001-2014 MetalTabs.com. All Rights Reserved.