top separator

Home

Forum

What's New

Submit a Tab

FAQ

Links

Contact Us

Link to Us

MetalTabs.com logo

Bands

0-9

A

B

C

D

E

F

G

H

I

J

K

L

M

N

O

P

Q

R

S

T

U

V

W

X

Y

Z

Search

What

Where
 

Vile - "Cradle Of Deceit" Guitar Tab

Plain Text Version
More Vile Tabs

Hits: 3210
Rated: 4.00 out of 5 (1 vote)
Updated: 2003-11-10 07:39:38

 

By:

BrutalGtrPlayer

sendpm.gif

email.gif

Important note
This tab is available online because we obtained explicit permission from Vile or their label.


#----------------------------------PLEASE NOTE---------------------------------#
#This file is the author's own work and represents their interpretation of the #
#song. You may only use this file for private study, scholarship, or research. #
#Unless specified otherwise, this is NOT an official tab from the band members.#
#------------------------------------------------------------------------------#

  Visit MetalTabs.com for more metal tablature
  
Band:  (Vile)
Album: (Stench of the Deceased)
Song:  (Cradle of Deceit)

Copyright (c)  (Self-Financed) (1999)
Version 1.0 - (9/1/03)

Transcribed By: (Kevin Frasard)
Email:          (TheWholeFahKingShow@hotmail.com)


.  - palm mute           /  - slide up to
\  - slide down to       ~  - vibrato
h  - hammer on           b  - Bend
p  - pull off            Suffixes for bend
t  - tap                 f  - full bend    h - half bend
ph - pinched harmonic    q  - quarter bend t - tap bend
*  - see comment         ^  - Hold bend    r release bend
x  - Stuccatto           ~  - vibrato bend
,  - slight palm mute    () - ghost note, sustained note
"  - tremolo note        <> - Trill

Tunning A or a whole step down on a 7-string


                    Riff 1 (6x)
                   p.m.......\    p.m...........\        p.m
------------------------------------------------------------
------------------------------------------------------------
------------------------------------------------------------
--5-8-5-8-5h8p5----------------5----7-5-4---4-----6---9-----
----------------4----4-7-4---4-7--4-------7---7-5-4---7---5-
-------------------5-------5------------------------------3-


              Rhy. Fig. 1A(4x)
----------------------------------------------------
----------------------------------------------------
----------------------------------------------------
--5h8p5-5h8p5-------------5h8p5-8h11p8-5h8p5-8h11p8-
--------------4h7p4-4h7p4---------------------------
----------------------------------------------------

 *Gtr.2(p.m. only)
  Gtr.1           Rhy. Fig. 1B(3x)
 *p.m.....................................................\
------------------------------------------------------------
------------------------------------------------------------
------------------------------------------------------------
--5h-8p5-5h-8p5-------------5h-8p5--8h11p-8-5h-8p5--8h11p-8-
--7h10p7-7h10p7-4h7p4-4h7p4-7h10p7-10h13p10-7h10p7-10h13p10-
----------------6h9p6-6h9p6---------------------------------

 *Gtr.2
  Gtr.1
 *p.m.....................\        p.m
--------------------------------------
--------------------------------------
--------------------------------------
--5h-8p5-5h-8p5-------------6---9-----
--7h10p7-7h10p7-4h7p4-4h7p4-4---7---5-
----------------6h9p6-6h9p6---------3-


Riff 1 (4x)

                 Riff 2 (8x)
  p.m.................\   p.m.....\
------------------------------------
------------------------------------
------------------------------------
------------------------8-----------
--7-6-----7-6-------8-7-----10-9-11-
------8-7-----8-7-7-------9---------

             Rhy. Fig 2 (3x)
  Gtr.2
 *Gtr.1(3rd x only/p.m.)    p.m.\   p.m.....\
----------------------------------------------
----------------------------------------------
----------------------------------------------
--5h-8p5-5h-8p5-------------------8-----------
-*7h10p7-7h10p7-4h7p4-4h7p4---8-7-----10-9-11-
----------------6h9p6-6h9p6-7-------9---------


Riff 2 (4x)


       Rhy. Fig. 3 (8x)
  p.m   p.m.................\
------------------------------
------------------------------
------------------------------
-----555----------------------
--222-------------------------
--------222333222555444333444-

                  Riff 3 (4x)
  p.m..\      p.m..\            p.m...\      p.m...\
-----------------------------------------------------
-----------------------------------------------------
-----------------------------------------------------
--------777777-------------sl.----------sl.----------
--444444------------999999-7/6--3-2-3-4-5/4--3-2-3-4-
--------------666666-------5/4--1-0-1-2-3/2--1-0-1-2-


       Riff 4A (3x)

       p.m...\      p.m...\
----------------------------
----------------------------
----------------------------
--sl.----------sl.----------
--5/4--4-4-4-4-4/3--3-3-3-3-
--3/2--2-2-2-2-2/1--1-1-1-1-

        Riff 4B

       p.m...\      p.m
--------------------------
--------------------------
--------------------------
--sl.----------sl.--------
--5/4--4-4-4-4-4/3--3-3-3-
--3/2--2-2-2-2-2/1--1-1-1-


Riff 4A (4x)
Riff 3  (4x)
Riff 4A (5x)


       p.m...\      p.m...\
----------------------------
----------------------------
----------------------------
--sl.----------sl.----------
--7/6--3-2-3-4-5/4--3-2-3-4-
--5/4--1-0-1-2-3/2--1-0-1-2-


Riff 4B(2x)

End

  Visit MetalTabs.com for more metal tablature

bottom separator

Contact Us | Privacy Policy | Disclaimer | Legal Notice
Copyright © 2001-2014 MetalTabs.com. All Rights Reserved.