top separator

Home

Forum

What's New

Submit a Tab

FAQ

Links

Contact Us

Link to Us

MuSpy.com

MetalTabs.com logo

Bands

0-9

A

B

C

D

E

F

G

H

I

J

K

L

M

N

O

P

Q

R

S

T

U

V

W

X

Y

Z

Search

What

Where
 

Graveland - "Thurisaz" Guitar Tab

Plain Text Version
More Graveland Tabs

Hits: 5577
Rated: 4.00 out of 5 (6 votes)
Updated: 2003-11-10 07:31:56

 

Important note
We did our best to reach Graveland and ask for their permission to publish this tab. Unfortunately they did not respond to our requests or we could not find a way to contact them. This tab is available online until Graveland tells us to take it down.


#----------------------------------PLEASE NOTE---------------------------------#
#This file is the author's own work and represents their interpretation of the #
#song. You may only use this file for private study, scholarship, or research. #
#Unless specified otherwise, this is NOT an official tab from the band members.#
#------------------------------------------------------------------------------#

  Visit MetalTabs.com for more metal tablature
  
Thurisaz,albume Following The Voice Of Blood

Cool song,very cool song!!Hope you enjoy the tab.
Any corrections or thanks to tears_nacudrus@yahoo.com

tabbed by Mikael Nacudrus

1,2,3,4 - bar beats
^ - tremolo picking
|-| - one bar

The measure is 4/4 and the tuning is normal.


  Intro(twice)
  ------------


  Guitar 1

   1     2    3  4        1    2     3  4       1     2    3  4
|---------------------|----------------------|---------------------|
|---------------------|----------------------|---------------------|
|---------------------|--------------7--7-7--|-------------9--9-9--|
|--10-10-9-9--7--7-7--|--10-10-9-10----------|--10-10-9-10---------|
|---------------------|----------------------|---------------------|
|---------------------|----------------------|---------------------|
|
| Guitar 2
|
|---------------------|----------------------|---------------------|
|---------------------|----------------------|---------------------|
|---------------------|----------------------|---------------------|
|---------------------|----------------------|-------------2--2-2--|
|---3-3--2-2----------|---3-3--2--3--5--5-5--|---3-3--2-3----------|
|-------------5--5-5--|----------------------|---------------------|
|
| Keyboards
|
|--Am-----------------|--(Am)----------------|--(Am)---------------|


  Guitar 1

   1     2     3  4       1     2    3  4        1     2    3  4
|----------------------|---------------------|---------------------|
|----------------------|---------------------|---------------------|
|--------------7--7-7--|---------------------|---------------------|
|--10-10-9-10----------|--10-10-9-9----------|--10-10-9-9--7--7-7--|
|----------------------|-------------8--8-8--|---------------------|
|----------------------|---------------------|---------------------|
|
| Guitar 2
|
|----------------------|---------------------|---------------------|
|----------------------|---------------------|---------------------|
|----------------------|---------------------|---------------------|
|----------------------|---------------------|---------------------|
|---3-3--2-3---5--5-5--|--3-3---2-2----------|---3-3--2-2----------|
|----------------------|-------------1--1-1--|-------------5--5-5--|
|
| Keyboards
|
|--(Am)----------------|--(Am)--------Fmaj---|--(Fmaj)-----Am------|


  Guitar 1

    1    2    3  4         1     2      3  4*
|----------------------|------------------------|
|----------------------|------------------------|
|----------------------|------------------------|
|--10-10-9-9-----------|---------10--9--7--7-7--|
|-------------8--8-8---|--10--8-----------------|
|----------------------|------------------------|
|
| Guitar 2
|
|----------------------|------------------------|
|----------------------|------------------------|
|----------------------|------------------------|
|----------------------|------------------------|
|---3-3--2-2-----------|---------3--2-----------|
|-------------1--1-1---|---3--1---------5--5-5--|
|
| Keyboards
|
|--(Am)--------Fmaj----|--(Fmaj)--------Am------|


*Second time,pause here.

  Part A 6 times
  --------------

  Guitar 1&2&Keyboards

   1    2    3   4     1   2,3,4    1,2,3,4
|-------------------|------------|-------|
|-------------------|------------|-------|
|-------------------|------------|-------|
|--4----5----4-5-7--|--5-4-2-----|--(2)--|
|--2----3----2-3-5--|--3-2-0-----|--(0)--|
|-------------------|------------|-------|



  Verse Riff 2 times
  ------------------

  Guitar 1

   1     2    3  4        1    2     3  4       1     2    3  4
|---------------------|----------------------|---------------------|
|---------------------|----------------------|---------------------|
|---------------------|--------------7^------|-------------9^------|
|--10^---9^---7^------|--10^---9^10^---------|--10^---9^10^--------|
|---------------------|----------------------|---------------------|
|---------------------|----------------------|---------------------|
|
| Guitar 2
|
|---------------------|----------------------|---------------------|
|---------------------|----------------------|---------------------|
|---------------------|----------------------|---------------------|
|---------------------|----------------------|-------------2^------|
|---3^---2^-----------|---3^---2^-3^-5^------|---3^---2^3^---------|
|-------------5^------|----------------------|---------------------|
|
| Keyboards
|
|--Am-----------------|--(Am)----------------|--(Am)---------------|


  Guitar 1

   1     2     3  4       1     2    3  4        1     2    3  4
|----------------------|---------------------|---------------------|
|----------------------|---------------------|---------------------|
|--------------7^------|---------------------|---------------------|
|--10^---9^10^---------|--10^---9^-----------|--10^---9^---7^------|
|----------------------|-------------8^------|---------------------|
|----------------------|---------------------|---------------------|
|
| Guitar 2
|
|----------------------|---------------------|---------------------|
|----------------------|---------------------|---------------------|
|----------------------|---------------------|---------------------|
|----------------------|---------------------|---------------------|
|---3^---2^3^--5^------|--3^----2^-----------|---3^---2^-----------|
|----------------------|-------------1^------|-------------5^------|
|
| Keyboards
|
|--(Am)----------------|--(Am)--------Fmaj---|--(Fmaj)-----Am------|


  Guitar 1

    1    2    3  4         1    2      3  4
|----------------------|----------------------|
|----------------------|----------------------|
|----------------------|----------------------|
|--10^---9^------------|--------10^9^-7^------|
|-------------8^-------|--10^8^---------------|
|----------------------|----------------------|
|
| Guitar 2
|
|----------------------|------------------------|
|----------------------|------------------------|
|----------------------|------------------------|
|----------------------|------------------------|
|---3-3--2-2-----------|---------3--2-----------|
|-------------1--1-1---|---3--1---------5--5-5--|
|
| Keyboards
|
|--(Am)--------Fmaj----|--(Fmaj)--------Am------|


  Part B 4 times clean guitars
  ----------------------------

  Guitar 1&2&Keyboards


   1        2        3        4
|--------------------------------------|
|--------------------------------------|
|--5--5-5-5-4--4-4-4-2--2-2-2-2--2-2-2-|
|--5--5-5-5-4--4-4-4-2--2-2-2-2--2-2-2-|
|--3--3-3-3-2--2-2-2-0--0-0-0-0--0-0-0-|
|--------------------------------------|
      --3--    --3--    --3--    --3--


Verse Riff twice
Part B 4 times

  Part C 4 times
  --------------

  Guitar 1

    1      2      3    4         1      2      3    4
|----------------------------|----------------------------|
|----------------------------|----------------------------|
|----------------------------|----------------------------|
|--10--10--9-----------------|-----------------7----7--7--|
|-------------10--7----7--7--|--10--10--9--10-------------|
|----------------------------|----------------------------|
|
| Guitar 2
|
|----------------------------|----------------------------|
|----------------------------|----------------------------|
|----------------------------|----------------------------|
|----------------------------|----------------------------|
|---3--3---2-----------------|----------------------------|
|-------------3---0----0--0--|---3---3--2---3--5----5--5--|


No keyboards.


  Part D 4 times
  --------------

  Guitar 1

   1       2      3    4         1      2      3    4
|----------------------------|----------------------------|
|----------------------------|----------------------------|
|----------------------------|----------------------------|
|--10^-----9^----------------|-----------------7^---------|
|-------------10^-7^---------|--10^-----9^-10^------------|
|----------------------------|----------------------------|
|
| Guitar 2
|
|----------------------------|----------------------------|
|----------------------------|----------------------------|
|----------------------------|----------------------------|
|----------------------------|----------------------------|
|---3^-----2^----------------|----------------------------|
|-------------3^--0^---------|---3^-----2^--3^-5^---------|


Keyboards do just just what the
guitars do.

  Part E 4 times
  --------------

  Guitar 1

    1      2      3    4*
|----------------------------|
|----------------------------|
|----------------------------|
|--10--10--9------7----7--7--|
|-------------10-------------|
|----------------------------|
|
| Guitar 2
|
|----------------------------|
|----------------------------|
|----------------------------|
|----------------------------|
|--3---3---2-----------------|
|-------------3---5----5--5--|

*4th time pause here

Guitars are distorted now.No keyboards.

Part A 6 times
Verse Riff 2 times
Part B 4 times
Verse Riff 2 times
Part B 4 times
Part C 4 times
Part D 4 times
Part E 4 times

The End

  Visit MetalTabs.com for more metal tablature

bottom separator

Contact Us | Privacy Policy | Disclaimer | Legal Notice
Copyright © 2001-2014 MetalTabs.com. All Rights Reserved.