top separator

Home

Forum

What's New

Submit a Tab

FAQ

Links

Contact Us

Link to Us

MuSpy.com

MetalTabs.com logo

Bands

0-9

A

B

C

D

E

F

G

H

I

J

K

L

M

N

O

P

Q

R

S

T

U

V

W

X

Y

Z

Search

What

Where
 

Mörk Gryning - "Tusen År Har Gått" Guitar Tab

Plain Text Version
More Mörk Gryning Tabs

Hits: 6188
Rated: 4.60 out of 5 (5 votes)
Updated: 2003-11-10 07:14:00

 

By:

sendpm.gif

email.gif

Important note
We did our best to reach Mörk Gryning and ask for their permission to publish this tab. Unfortunately they did not respond to our requests or we could not find a way to contact them. This tab is available online until Mörk Gryning tells us to take it down.


#----------------------------------PLEASE NOTE---------------------------------#
#This file is the author's own work and represents their interpretation of the #
#song. You may only use this file for private study, scholarship, or research. #
#Unless specified otherwise, this is NOT an official tab from the band members.#
#------------------------------------------------------------------------------#

  Visit MetalTabs.com for more metal tablature
  
Artist : Mörk Gryning
Song   : Tüsen aar har Gatt
Album  : Tüsen aar har Gatt
Transcribed by Midnat             Mute = .


E-mail: <Morsusfrc@hotmail.com>

A Great song by the Swedish Black Metal band, a fistfull of energy right in your face!
Listen to the song for the right timing and for the exact number of strokes..


  Riff.1  -Trem..-                                                                4times
E|-----------------------------------------|--------------------------------------------|
B|-----------------------------------------|--------------------------------------------|
G|-----101010-777--------------101010-999--|--------------------------------------------|
D|--000----------777-888-111111------------|-----101010---------------------------------|
A|-----------------------------------------|--888------111111-101010-888-101010---------|
E|-----------------------------------------|-----------------------------------888-999--|

  Fill.1          -Trem..-   4times    Riff.2  -Trem..-
E|-------------|-------------------| E|---------------------------------------|
B|-------------|-------------------| B|-----111111-101010---------------------|
G|--7----7777--|-------------------| G|--777-------------121212-101010--------|
D|--7----7777--|--777-666----------| D|-------------------------------111111--|
A|--5----5555--|--555-444-333/666--| A|---------------------------------------|
E|-------------|----------111/444--| E|---------------------------------------|
                  ... ... ... ...
  Riff.2 (continued)                                                                1time
E|------------------------------------|-----------------------------------131313-121212--|
B|--111111-101010---------------------|--111111-101010-----------------------(666-555)---|
G|---------------121212-101010--------|---------------121212-101010----------------------|
D|----------------------------121212--|----------------------------111111----------------|
A|------------------------------------|--------------------------------------------------|
E|------------------------------------|--------------------------------------------------|


  Riff.2b  -Trem..-                                                         1time
E|---------------------|---------------------|---------------------|-------------|
B|---------------------|---------------------|---------------------|-----666555--|
G|---------------------|---------------------|---------------------|-------------|
D|-----888-777-555-----|-----888-777-555-----|-----888-777-555-----|-------------|
A|--555-----------888--|--444-----------888--|--555-----------888--|--444--------|
E|---------------------|---------------------|---------------------|-------------|

  Repeat Riff.2. 1time

  Riff.3. -Trem..-                                                                          1time
E|-----------------------|----------------------|----------------------|-------------------------|
B|-----------------------|----------------------|----------------------|-------------------------|
G|-----777-666--1010-99--|-----777-666-1010-99--|-----777-666-1010-99--|-----777-666-99-12-10-9--|
D|--000------------------|--000-----------------|--000-----------------|--000--------------------|
A|-----------------------|----------------------|----------------------|-------------------------|
E|-----------------------|----------------------|----------------------|-------------------------|

  Play Riff.1. 2times

  Repeat Fill.1.

  Fill.2. Gtr1. -Slower..-                       3times
E|-----------------------------------------------------|
B|-----------------------------------------------------|
G|--7--------------5--------------3--------------------|
D|--7--------------5--------------3-----------------3--|
A|--5--------------3--------------1-----------------3--|
E|--------------------------------------------------1--|
 |                                                     |
 |Fill.2. Gtr2. -Trem..-                               |                           at end
E|-----------------------------------------------------|----------------------------------|
B|-------------------------------------1010------------|----------------------------------|
G|--------101010-999-------------101010----101010-999--|--------101010-999------1412------|
D|--121212----------101010-121212----------------------|--121212----------101010----1514--|
A|-----------------------------------------------------|----------------------------------|
E|-----------------------------------------------------|----------------------------------|


  Fill.2b. -Trem..-                              3times                                    at end
E|------------------------------------------------------|-----------------------------------------|
B|-----------------------------------1212---------------|-----------------------------------------|
G|--999-121212-111111------999-121212----121212-111111--|--999-121212-111111------16-14-12-11--9--|
D|-------------------121212-----------------------------|-------------------121212----------------|
A|------------------------------------------------------|-----------------------------------------|
E|------------------------------------------------------|-----------------------------------------|

  Fill.3. -Trem..-    12times                   1time
E|----------------------------|-----------------------|
B|----------------------------|-----------------------|
G|----------------------------|--------------------3--|
D|----------------------------|--3--------5--------3--|
A|--777777888888555555555555--|--3--------5--------1--|
E|--555555555555555555888887--|--1--------3-----------|


  Repeat Riff.2b 1time

  Repeat Riff.2  1time

  Repeat Riff.3. 1time


  The End..

  Visit MetalTabs.com for more metal tablature

bottom separator

Contact Us | Privacy Policy | Disclaimer | Legal Notice
Copyright © 2001-2014 MetalTabs.com. All Rights Reserved.