top separator

Home

Forum

What's New

Submit a Tab

FAQ

Links

Contact Us

Link to Us

MetalTabs.com logo

Bands

0-9

A

B

C

D

E

F

G

H

I

J

K

L

M

N

O

P

Q

R

S

T

U

V

W

X

Y

Z

Search

What

Where
 

Trail of Tears - "Temptress" Guitar Tab

Plain Text Version
More Trail of Tears Tabs

Hits: 4673
Rated: 4.00 out of 5 (3 votes)
Updated: 2003-11-02 09:53:41

 

By:

Darkenelf

sendpm.gif

email.gif

Important note
This tab is available online because we obtained explicit permission from Trail of Tears or their label.


#----------------------------------PLEASE NOTE---------------------------------#
#This file is the author's own work and represents their interpretation of the #
#song. You may only use this file for private study, scholarship, or research. #
#Unless specified otherwise, this is NOT an official tab from the band members.#
#------------------------------------------------------------------------------#

  Visit MetalTabs.com for more metal tablature
  
Band: Trail of Tears
Album: Disclosure in Red
Song: Temptress
Tabbed by: Martijn Wietsma (Darkenelf)
New Email: northerland@yahoo.co.uk
Tab Date: 01-09-2003

Standard E Tuning

riff A (intro solo)
|--------------------------------------------------------|
|--------------------------------------------------------|
|--------------------------------------------------------|
|-----------------------8--------------------------------|
|-3/6-6-6--3/6-6-6--6-9---9-9-9-8-8-8-9-8----------------|
|--------------------------------------------------------|

riff B
|--------------------------------------------------------|
|--------------------------------------------------------|
|--------------------------------------------------------|
|-8--8------8----------8--8------8--11-10-11-10-8--------|
|-6--6--6-9---9-8h9p8--6--6--6-9-----9--8--9--8-6--------|
|--------------------------------------------------------|

|--------------------------------------------------------|
|--------------------------------------------------------|
|--------------------------------------------------------|
|-8------8--11-10-11-10-8------888888--------------------|
|-6--6-9-----9--8--9--8-6------666666--------------------|
|--------------------------------------------------------|
                               xxxxxx
riff C (0:24) (chords) (lead is missing)
|------------------------------------------------------------|
|------------------------------------------------------------|
|------------------------------------------------------------|
|-8-888-8-888-8--6-666-6-666-6-----------------6-666-6-666-6-|
|-6-666-6-666-6--4-444-4-444-4--9-999-9-999-9--4-444-4-444-4-|
|-------------------------------7-777-7-777-7----------------|
 p.m........................................................
						(4x)
riff D
|--------------------------------------------------------|
|--------------------------------------------------------|
|--------------------------------------------------------|
|-8---------6-----------------8---------6----------------|
|-6-8-6h8h9---9p8-6h----9-8---6-8-6h8h9---9p8-6h----9-8--|
|--------------------9--7-6----------------------9--7-6--|

riff D2
|--------------------------------------------------------|
|--------------------------------------------------------|
|--------------------------------------------------------|
|-8---------6----------------9------8--------------------|
|-6-8-6h8h9---9p8-6h-------9------8----------------------|
|--------------------9---7------6------------------------|
						(4x)
riff E
|--------------------------------------------------------|
|--------------------------------------------------------|
|--------------------------------------------------------|
|-8--8-------8--8--9-8p6--------------------8------------|
|-6--6--9-8--6--6--------9p8----(4x)--------6------------|
|--------------------------------------------------------|

(keyboard part)

riff F (2:29)
|--------------------------------------------------------|
|--------------------------------------------------------|
|--------------------------------------------------------|
|-8--6--4------------------------------------------------|
|-6--4--2------------------------------------------------|
|--------------------------------------------------------|

riff G
|--------------------------------------------------------|
|--------------------------------------------------------|
|--------------------------------------------------------|
|-666-4-------------4----666-4-------------4-------------|
|-------6h7-666-4--------------6h7-666-4-----------------|
|-----------------7----------------------7---------------|

|--------------------------------------------------------|
|--------------------------------------------------------|
|--------------------------------------------------------|
|-666-4-------------4-------------44---------------------|
|-------6h7-666-4--------44-66-77------------------------|
|-----------------7--------------------------------------|

repeat riff G complete 4x

solo comes in (missing)

riff H (3:09)
|--------------------------------------------------------|
|--------------------------------------------------------|
|--------------------------------------------------------|
|--------------------------------------------------------|
|-9-----9-----7------7\5\4-------------------------------|
|-7-777-7-777-5-555--5\3\2-------------------------------|
    xxx   xxx   xxx				(2x)

riff I
|--------------------------------------------------------|
|--------------------------------------------------------|
|--------------------------------------------------------|
|--------------------------------------------------------|
|-7-----7-----9------7\5\4-------------------------------|
|-5-555-5-555-7-777--5\3\2-------------------------------|
    xxx   xxx   xxx				(2x)

repeat riff H 4x
repeat riff C 4x
repeat riff D 2x
repeat riff D2 4x
repeat riff E 4x

  Visit MetalTabs.com for more metal tablature

bottom separator

Contact Us | Privacy Policy | Disclaimer | Legal Notice
Copyright © 2001-2014 MetalTabs.com. All Rights Reserved.