top separator

Home

Forum

What's New

Submit a Tab

FAQ

Links

Contact Us

Link to Us

MetalTabs.com logo

Bands

0-9

A

B

C

D

E

F

G

H

I

J

K

L

M

N

O

P

Q

R

S

T

U

V

W

X

Y

Z

Search

What

Where
 

Finntroll - "Blodnatt" Guitar Tab

Plain Text Version
More Finntroll Tabs

Hits: 5047
Rated: 5.00 out of 5 (1 vote)
Updated: 2003-11-02 09:49:55

 

By:

Darkenelf

sendpm.gif

email.gif

Important note
This tab is available online because we obtained explicit permission from Finntroll or their label.


#----------------------------------PLEASE NOTE---------------------------------#
#This file is the author's own work and represents their interpretation of the #
#song. You may only use this file for private study, scholarship, or research. #
#Unless specified otherwise, this is NOT an official tab from the band members.#
#------------------------------------------------------------------------------#

  Visit MetalTabs.com for more metal tablature
  
Band: Finntroll
Album: Midnattens Widunder
Song: Blodnatt
Tabbed by: Martijn Wietsma (Darkenelf)
Tab Date: 01-09-2003
Email: dalvanian@yahoo.com

Standard E Tuning

riff A (Intro after 0:42)
|--------------------------------------------------|
|--------------------------------------------------|
|--------------------------------------------------|
|----------2---------------------------------------|
|-7--5--4--2---------------------------------------|
|-5--3--2--0---------------------------------------|
					(1x)
riff B (0:45)
|--------------------------------------------------|
|--------------------------------------------------|
|--------------------------------------------------|
|--------------------------------------------------|
|-99999-7---99999-7---99999---55-5--77-7-----------|
|-77777-5---77777-5---77777---33-3--55-5-----------|
                              xx    xx	(1x)

|--------------------------------------------------|
|--------------------------------------------------|
|--------------------------------------------------|
|--------------------------------------2-----------|
|-99999-7---99999-7---99999---7--5--4--2-----------|
|-77777-5---77777-5---77777---5--3--2--0-----------|
					(1x)
repeat complete riff 4x

riff C (1:40)
|--------------------------------------------------|
|--------------------------------------------------|
|--------------------------------------------------|
|-----2-------2------------------------------------|
|-3---2---3---2------------------------------------|
|-1---0---1---0------------------------------------|
					(1x)
riff D (1:50)
|--------------------------------------------------|
|--------------------------------------------------|
|--------------------------------------------------|
|----------22222222----------22222222--------------|
|-33333333-22222222-33333333-22222222--------------|
|-11111111-00000000-11111111-00000000--------------|
					(4x)
riff E (2:09)
|--------------------------------------------------|
|--------------------------------------------------|
|--------------------------------------------------|
|-----7-------7------------------------------------|
|-9---5---9---5------------------------------------|
|-7-------7----------------------------------------|
					(1x)
riff F (2:18)
|--------------------------------------------------|
|--------------------------------------------------|
|--------------------------------------------------|
|-----------------------7-77--7-77--7-77-77--------|
|-9-99--9-99--9-99-99---5-55--5-55--5-55-55--------|
|-7-77--7-77--7-77-77------------------------------|

riff G (flute) probably same as the lead! (2:29)
|-----------------------5-7p5--------5-7p5---------|
|------------7-5h7p5----------8-7----------8-7-----|
|-4-3h4p3h4----------7-----------------------------|
|--------------------------------------------------|
|--------------------------------------------------|
|--------------------------------------------------|
					(4x)
repeat riff D 4x
repeat riff F + G 4x

riff H (3:14) (not sure about this part)
|--------------------------------------------------|
|--------------------------------------------------|
|--------------------------------------------------|
|--------------------------------------------------|
|-6---7---6---7------------------------------------|
|-4---5---4---5------------------------------------|
					(8x)
riff I (4:11)
|--------------------------------------------------|
|--------------------------------------------------|
|--------------------------------------------------|
|---6---6---6---6---6---6---6---6------------------|
|---6---6---6---6---6---6---6---6------------------|
|-4---4---4---4---4---4---4---4--------------------|
  x   x   x   x   x   x   x   x		(1x)

riff J
|--------------------------------------------------|
|--------------------------------------------------|
|--------------------------------------------------|
|---7---7---7---7---7---7---7---7------------------|
|---7---7---7---7---7---7---7---7------------------|
|-5---5---5---5---5---5---5---5--------------------|
  x   x   x   x   x   x   x   x		(1x)

riff K (4:30) ending riff
|--------------------------------------------------|
|--------------------------------------------------|
|--------------------------------------------------|
|-----1-2------1-2-----1-2-----1-2-----------------|
|-4-4------4-4-----4-4-----4-4---------------------|
|--------------------------------------------------|

|--------------------------------------------------|
|--------------------------------------------------|
|--------------------------------------------------|
|-----2-3-----2-3-----2-3-----2-3------------------|
|-5-5-----5-5-----5-5-----5-5----------------------|
|--------------------------------------------------|

repeat riff K complete 4x

  Visit MetalTabs.com for more metal tablature

bottom separator

Contact Us | Privacy Policy | Disclaimer | Legal Notice
Copyright © 2001-2014 MetalTabs.com. All Rights Reserved.