top separator

Home

Forum

What's New

Submit a Tab

FAQ

Links

Contact Us

Link to Us

MetalTabs.com logo

Bands

0-9

A

B

C

D

E

F

G

H

I

J

K

L

M

N

O

P

Q

R

S

T

U

V

W

X

Y

Z

Search

What

Where
 

Finntroll - "Svartberg" Guitar Tab

Plain Text Version
More Finntroll Tabs

Hits: 7431
Rated: 3.20 out of 5 (5 votes)
Updated: 2003-11-02 09:42:30

 

By:

Darkenelf

sendpm.gif

email.gif

Important note
This tab is available online because we obtained explicit permission from Finntroll or their label.


#----------------------------------PLEASE NOTE---------------------------------#
#This file is the author's own work and represents their interpretation of the #
#song. You may only use this file for private study, scholarship, or research. #
#Unless specified otherwise, this is NOT an official tab from the band members.#
#------------------------------------------------------------------------------#

  Visit MetalTabs.com for more metal tablature
  
Band: Finntroll
Album: Midnattens Widunder
Song: Svartberg
Tabbed by: Martijn Wietsma (Darkenelf)
Tab Date: 30-08-2003)
Email: dalvanian@yahoo.com

Standard E Tuning

riff A
|--------------------------------------------------------|
|--------------------------------------------------------|
|--------------------------------------------------------|
|-----------8----------------8---------------------------|
|-7---------6--7-------------6--7------------------------|
|-5------------5----------------5------------------------|

riff B (0:11)
|--------------------------------------------------------|
|--------------------------------------------------------|
|--------------------------------------------------------|
|--------------------------------------------------------|
|--------------------------7-0-7-5-----------------------|
|-5-0h5-8p7h8-7-5-3-5-0h5----------8p7p------------------|
 p.m....................................	(4x)

riff C
|--------------------------------------------------------|
|--------------------------------------------------------|
|--------------------------------------------------------|
|--------------------------------------------------------|
|--------------------------7-0-7-5-----------------------|
|-5-0h5-8p7h8-7-5-3-5-0h5----------8p7p------------------|
						(4x)
riff D (0:39)
|--------------------------------------------------------|
|--------------------------------------------------------|
|--------------------------------------------------------|
|-----------------------------8--------------------------|
|-7--77---7--77---7--77---77--6--------------------------|
|-5--55---5--55---5--55---55-----------------------------|
						(4x)
riff E (0:52)
|--------------------------------------------------------|
|--------------------------------------------------------|
|--------------------------------------------------------|
|----22------22------22------2--8------------------------|
|-7--22---7--22---7--22---7--2--6------------------------|
|-5--00---5--00---5--00---5--0---------------------------|
     xx      xx      xx				(4x)

riff F (1:08)
|--------------------------------------------------------|
|--------------------------------------------------------|
|--------------------------------------------------------|
|-7-----7-----8-----7------------------------------------|
|-7-----7-----8-----7------------------------------------|
|---55----55----66----55---------------------------------|
    xx    xx    xx    xx			(8x)

riff G (1:24) (play this very fast)
|--------------------------------------------------------|
|--------------------------------------------------------|
|--------------------------------------------------------|
|-----------10-10-10-10--9999----------------------------|
|-77777777---8--8--8--8--7777---(8x)-----------7---------|
|-55555555-------------------------------------5---------|

~~~~~ long happy keyboard part  ~~~~~~

repeat riff B 4x (2:17)
repeat riff C 4x
repeat riff D 4x
repeat riff E 4x

riff H (3:13)
|--------------------------------------------------------|
|--------------------------------------------------------|
|--------------------------------------------------------|
|-7--5---------------------------------------------------|
|-5--3--9--7---------------------------------------------|
|-------7--5---------------------------------------------|
						(1X)
Riff I
|--------------------------------------------------------|
|--------------------------------------------------------|
|--------------------------------------------------------|
|-------------5-5--7-------------------------------------|
|-7---7---7---3-3--5-10-9-7------------------------------|
|-5---5---5-----------8-7-5------------------------------|
						(8x)
(4:00) keyboard ends the song!

  Visit MetalTabs.com for more metal tablature

bottom separator

Contact Us | Privacy Policy | Disclaimer | Legal Notice
Copyright © 2001-2014 MetalTabs.com. All Rights Reserved.