top separator

Home

Forum

What's New

Submit a Tab

FAQ

Links

Contact Us

Link to Us

MuSpy.com

MetalTabs.com logo

Bands

0-9

A

B

C

D

E

F

G

H

I

J

K

L

M

N

O

P

Q

R

S

T

U

V

W

X

Y

Z

Search

What

Where
 

Vile - "Path To Incineration" Guitar Tab

Plain Text Version
More Vile Tabs

Hits: 4199
Rated: 5.00 out of 5 (2 votes)
Updated: 2003-11-02 09:29:16

 

By:

BrutalGtrPlayer

sendpm.gif

email.gif

Important note
This tab is available online because we obtained explicit permission from Vile or their label.


#----------------------------------PLEASE NOTE---------------------------------#
#This file is the author's own work and represents their interpretation of the #
#song. You may only use this file for private study, scholarship, or research. #
#Unless specified otherwise, this is NOT an official tab from the band members.#
#------------------------------------------------------------------------------#

  Visit MetalTabs.com for more metal tablature
  
Band:  (Vile)
Album: (Depopulate)
Song:  (Path to Incineration)

Copyright (c)  (Unique Leader Records) (2002)
Version 1.0 - (8/28/03)

Transcribed By: (Kevin Frasard)
Email:          (TheWholeFahKingShow@hotmail.com)


.  - palm mute           /  - slide up to
\  - slide down to       ~  - vibrato
h  - hammer on           b  - Bend
p  - pull off            Suffixes for bend
t  - tap                 f  - full bend    h - half bend
ph - pinched harmonic    q  - quarter bend t - tap bend
*  - see comment         ^  - Hold bend    r release bend
x  - Stuccatto           ~  - vibrato bend
,  - slight palm mute    () - ghost note, sustained note
"  - tremolo note        <> - Trill

Tunning A# (or 1/2 step down on a 7-string)


                      Rhy. Fig. 1 (2x)
               p.m                            p.m
------------------------------------------------------------------
------------------------------------------------------------------
------------------------------------------------------------------
-------------------333333333333333----------------333333222333----
--0-2-3-5-3-2-0-3------------------0-2-3-5-2-0-3--------------444-
----------------1------------------------------1------------------


               p.m                            p.m
------------------------------------------------------------------|
------------------------------------------------------------------|
------------------------------------------------------------------|
-------------------333333333333333----------------333333222-------|
--0-2-3-5-3-2-0-3------------------0-2-3-5-2-0-3-----------333444-|
----------------1------------------------------1------------------|


              p.m
-----------------
-----------------
-----------------
-----------------
-0-2-3-5-3-2-0-3-
---------------1-

                      Rhy. Fig. 2(3x)
                              p.m...........\   p.m
--------------------------------------------------------------------------
--------------------------------------------------------------------------
--------------------------------------------------------------------------
--sl.sl.-444----------------------------------------444333------222111----
--4\5/4-----333------555444555---------------444-4--------555444------222-
--2\3/2--------222666---------555666444555333----2------------------------


 p.m          p.m
-----------------|
-----------------|
-----------------|
-----333222333---|
--3------------4-|
--1------------2-|

     Rhy. Fig. 3 (4x)
                        p.m
---------------------------
---------------------------
---------------------------
--sl.sl.-444---------------
--4\5/4-----333------444-4-
--2\3/2--------222666----2-

     Rhy. Fig. 4 (2x)

-------------------------
-------------------------
-------------------------
--sl.sl.-444-------------
--4\5/4-----333------333-
--2\3/2--------222555----

              Riff 1 (4x)
 p.m        p.m        p.m....\   p.m.........\
------------------------------------------------
------------------------------------------------
------------------------------------------------
-----776777-----777666--------------------------
--------------------------4-3---3---------------
--4----------4----------2-----4---4-3-4-1-2-1-2-

       Riff 2 (8x)
  p.m...\   p.m.........\
--------------------------
--------------------------
--------------------------
--------------------------
----4-3---3---------------
--2-----4---4-3-4-1-2-1-2-

       Rhy. Fig. 5 (8x)
      p.m...........\  p.m....\
----------------------------------
----------------------------------
----------------------------------
------------3-2-4-3---3-----------
--2-1---------------4---4---4-3---
------3-2-1---------------2-----4-



Riff 1(4x)
Riff 2(8x)

                             Rhy. Fig. 6 (4x)
        p.m.......\                  p.m\         p.m...\                 p.m
-----------------------------------------------------------------------------
-----------------------------------------------------------------------------
-----------------------------------------------------------------------------
--999555-------------444333---222111-------999555----------444333---222111---
---------7--8--7--4--------333-------3--4---------7--8--4--------333-------3-
---------5--6--5--2------------------1--2---------5--6--2------------------1-

        Rhy. Fig. 7 (7x)
          p.m   p.m   p.m......\
-------------------------------------
-------------------------------------
-------------------------------------
--------5-----2-----1--------4-4-4/3-
----------------3-----2---0--2-2-2/1-
--0h2h3---3-2-----4-----3------------


          p.m   p.m   p.m.........\    p.m.........\
-----------------------------------------------------
-----------------------------------------------------
-----------------------------------------------------
--------5-----2-----1--------------------------------
----------------3-----2---2-2-2-2-3----4-5-4-3-2-2-3-
--0h2h3---3-2-----4-----3-0-0-0-0-1----2-3-2-1-0-0-1-

End

  Visit MetalTabs.com for more metal tablature

bottom separator

Contact Us | Privacy Policy | Disclaimer | Legal Notice
Copyright © 2001-2014 MetalTabs.com. All Rights Reserved.