top separator

Home

Forum

What's New

Submit a Tab

FAQ

Links

Contact Us

Link to Us

MuSpy.com

MetalTabs.com logo

Bands

0-9

A

B

C

D

E

F

G

H

I

J

K

L

M

N

O

P

Q

R

S

T

U

V

W

X

Y

Z

Search

What

Where
 

Vile - "Severed" Guitar Tab

Plain Text Version
More Vile Tabs

Hits: 3005
Updated: 2003-11-02 09:03:16

 

By:

BrutalGtrPlayer

sendpm.gif

email.gif

Important note
This tab is available online because we obtained explicit permission from Vile or their label.


#----------------------------------PLEASE NOTE---------------------------------#
#This file is the author's own work and represents their interpretation of the #
#song. You may only use this file for private study, scholarship, or research. #
#Unless specified otherwise, this is NOT an official tab from the band members.#
#------------------------------------------------------------------------------#

  Visit MetalTabs.com for more metal tablature
  
Band:  (Vile)
Album: (Stench of the Deceased)
Song:  (Severed)

Copyright (c)  (Self-Financed) (1999)
Version 1.0 - (8/27/03)

Transcribed By: (Kevin Frasard)
Email:          (TheWholeFahKingShow@hotmail.com)


.  - palm mute           /  - slide up to
\  - slide down to       ~  - vibrato
h  - hammer on           b  - Bend
p  - pull off            Suffixes for bend
t  - tap                 f  - full bend    h - half bend
ph - pinched harmonic    q  - quarter bend t - tap bend
*  - see comment         ^  - Hold bend    r release bend
x  - Stuccatto           ~  - vibrato bend
,  - slight palm mute    () - ghost note, sustained note
"  - tremolo note        <> - Trill

Tunning D(1 whole step down)


       Riff 1 (8x)
  p.m.....................\
--------------------------------------
--------------------------------------
--------------------------------------
----------------------------9-12-9----
--7-10-7---------------7-10--------11-
---------9-6-0-0-6-9-6----------------

           Riff 2 (4x)
       p.m      p.m     p.m
------------------------------------
------------------------------------
------------------------------------
--sl.--------------sl.------sl.sl.--
--9/8------3-4-5---6/5------5/4\(6)-
--7/6--0-0-1-2-3-0-4/3--0-0-3/2\(8)-

            Riff 3 (7x)
  p.m...................\
----------------------------------------
----------------------------------------
----------------------------------------
----------------------------------------
------4-7-3-6-----6-9-5-8-7h10p7-8h11p8-
--2-5---------5-8-----------------------



  p.m...........................\
----------------------------------
----------------------------------
----------------------------------
----------------------------------
------4-7-3-6---------------------
--2-5---------1-4-3-2-1-0-4-3-1-2-

       *Riff 4 (7x)
  p.m.......................\
------------------------------------
------------------------------------
------------------------------------
------------------------------sl.---
------------------------------3\4---
--000-000-000-000-0-3-2-0-4-3-1\2---


  p.m.......................\
------------------------------
------------------------------
------------------------------
------------------------------
------------------------------
--000-000-000-000-0-3-2-0-4-3-

                Rhy. Fig. 1 (4x)
        p.m        p.m        p.m          p.m      p.h~p.m...\
----------------------------------------------------------------
----------------------------------------------------------------
----------------------------------------------------------------
-----------------------sl.--------sl.-sl.-----------------------
----------------6------8\910------4\5-5/4------------1----------
--8--7--0-0-7h8-6--0-0-6\7-8--0-0-2\3-3/2--0-0-3p2p0----0-0-0-0-


*Riff 4 (8x)                *The power chords are p.m.(chunk)in
 Riff 2 (4x)slighly slower   some of the parts, if you know the
 Riff 3 (8x)                 song, then you already know.
 Riff 1 (4x)

 End

  Visit MetalTabs.com for more metal tablature

bottom separator

Contact Us | Privacy Policy | Disclaimer | Legal Notice
Copyright © 2001-2014 MetalTabs.com. All Rights Reserved.