top separator

Home

Forum

What's New

Submit a Tab

FAQ

Links

Contact Us

Link to Us

MetalTabs.com logo

Bands

0-9

A

B

C

D

E

F

G

H

I

J

K

L

M

N

O

P

Q

R

S

T

U

V

W

X

Y

Z

Search

What

Where
 

Vile - "Surgery" Guitar Tab

Plain Text Version
More Vile Tabs

Hits: 3388
Updated: 2003-11-02 09:02:19

 

By:

BrutalGtrPlayer

sendpm.gif

email.gif

Important note
This tab is available online because we obtained explicit permission from Vile or their label.


#----------------------------------PLEASE NOTE---------------------------------#
#This file is the author's own work and represents their interpretation of the #
#song. You may only use this file for private study, scholarship, or research. #
#Unless specified otherwise, this is NOT an official tab from the band members.#
#------------------------------------------------------------------------------#

  Visit MetalTabs.com for more metal tablature
  
Band:  (Vile)
Album: (Stench of the Deceased)
Song:  (Surgery)

Copyright (c)  (Self-Financed) (1999)
Version 1.0 - (8/26/03)

Transcribed By: (Kevin Frasard)
Email:          (TheWholeFahkingShow@hotmail.com)


.  - palm mute           /  - slide up to
\  - slide down to       ~  - vibrato
h  - hammer on           b  - Bend
p  - pull off            Suffixes for bend
t  - tap                 f  - full bend    h - half bend
ph - pinched harmonic    q  - quarter bend t - tap bend
*  - see comment         ^  - Hold bend    r release bend
x  - Stuccatto           ~  - vibrato bend
,  - slight palm mute    () - ghost note, sustained note
"  - tremolo note        <> - Trill

Tunning A or 1 whole step down on a 7-string



        Riff 1 (4x)                                           Riff 2 (4x)
 p.m         p.m         p.m          p.m    p.m      p.m (4x)      p.m
----------------------------------------------------|--------------|-----------
----------------------------------------------------|--------------|-----------
-----------6-----------------------10---------------|-----------6--|-----------
-----5--4--------7--6--------9--8---------10-----6--|-----5--4-----|----7--6---
--------------5--------7---------------8------5-----|--------------|-5--------7
--2-----------------------6-------------------------|--2-----------|-----------

                                     Fill 1                       Riff 3 (4x)
 p.m         p.m    p.m      p.m          p.m    p.m    pause  p.m.....\
---------------------------|---------------------------|-----|-----------------
---------------------------|---------------------------|-----|-----------------
-----------10--------------|-----------10--------------|-----|-----------------
-----9--8---------10-----6-|-----9--8---------10-----6-|-----|-----------------
---------------8------5----|---------------8------5----|-----|--7-10-----9--8--
--6------------------------|--6------------------------|-----|-------6-9-7--6--

                                                 Riff 1 Riff 3 (2x) slower
  p.m\             p.m.....\       p.m\           (4x)         (2x) normal
------------------------------------------------|------|------------------|
------------------------------------------------|------|------------------|
------------------------------------------------|------|------------------|
---------------6h9------------------------------|------|------------------|
------3--4--3------7-10------9--8------3--4--3--|------|------------------|
--0-0-1--2--1-----------6-9--7--6--0-0-1--2--1--|------|------------------|

   Rhy. Fig. 1 (2x) slightly slower
 p.m.....\      p.m\         p.m.....\      p.m\            p.m....\
----------------------------------------------------------|-----------|
----------------------------------------------------------|-----------|
--------------------10-11-11------------------------------|-----------|
--------------------10-11-11------------------------------|-----------|
--7-10-----9--8------8--9--8--7-10-----9--8------3--4--3--|--4-5-4-3--|
-------6-9-7--6--0-0-8--9--8-------6-9-7--6--0-0-1--2--1--|--2-3-2-1--|
    Rhy. Fig. 2 (*4x) *last (2x) 1 1/2 step higher harmonized

         p.m         p.m            p.m        p.m          p.m......\
------------------------------------------------------------------------|
------------------------------------------------------------------------|
------------------------------------------------------------------------|
------------------------------------------------------------------------|
--/7--6--2-2--/5--4--2-2-2--3--2--1--2--/7--6--2-2--/5--4---4--5--4--2--|
---------0-0---------0-0-------------0---------0-0----------2--3--2--0--|

      Rhy. Fig. 3 (2x)
  p.m..........\         p.h~~~~  p.m.......\               p.m.........\
-------------------------------------------------------------------------
-------------------------------------------------------------------------
-------------------------------------------------------------------------
-------------------------------------------------------------------------
--2---4---5---4--------^-r--------2---4---5---4---(4)---(4)-2---4---5---4
--0---2---3---2---3---(3)-3-------0---2---3---2---(2)---(2)-0---2---3---2
                              Gtr.1
                              Gtr.2
         p.h~~~~  p.m.....\  *p.m....................................\
-----------------------------------------------------------------------
-----------------------------------------------------------------------
------------------------------5555555555555555--------5555555566666666-
-------r----------------------7777777777777777444444447777777788888888-
-------^----------2---4---5-------------------66666666-----------------
--3---(3)-3-------0---2---3--------------------------------------------
                             *2nd time only
      Riff 4 *(4x)
  p.m...................\       p.m................................\
---------------------------------------------------------------------
---------------------------------------------------------------------
---------------------------------------------------------------------
--------------------------2------------------------------------------
--4444444433333333--------2-----4444444433333333---------------------
------------------5-3-2-0-----------------------55555555333322226666-

 *(4th time played like this)
  p.m............................\
-------------------------------------
-------------------------------------
-------------------------------------
-------------------------------------
--4444444433333333-------------------
------------------5555555533332222-6-
           Gtr.1 Rhy. Fig. 4 (8x)
           Gtr.2
  p.m...\  p.h  p.m...\
------------------------------
------------------------------
------------------------------
------------------------------
--4--5--3---6---4--5--3---sl.-
--2--3--1---6---2--3--1---1\4-
           Gtr.1
           Bar Dive      Riff 4 Riff 1 Riff 2 Fill 1 End
  p.m...\     \ p.m...\   (4x)   (4x)   (4x)
------------22----------|------|------|------|------|-
------------------------|------|------|------|------|-
------------------------|------|------|------|------|-
------------------------|------|------|------|------|-
--4--5--3-------4--5--3-|------|------|------|------|-
--2--3--1-------2--3--1-|------|------|------|------|-

  Visit MetalTabs.com for more metal tablature

bottom separator

Contact Us | Privacy Policy | Disclaimer | Legal Notice
Copyright © 2001-2014 MetalTabs.com. All Rights Reserved.