top separator

Home

Forum

What's New

Submit a Tab

FAQ

Links

Contact Us

Link to Us

MetalTabs.com logo

Bands

0-9

A

B

C

D

E

F

G

H

I

J

K

L

M

N

O

P

Q

R

S

T

U

V

W

X

Y

Z

Search

What

Where
 

Napalm Death - "Inside The Torn Apart" Guitar Tab

Plain Text Version
More Napalm Death Tabs

Hits: 4336
Rated: 3.00 out of 5 (1 vote)
Updated: 2005-12-30 01:19:02

 

By:

Daniil

sendpm.gif

email.gif

Important note
This tab is available online because we obtained explicit permission from Napalm Death or their label.


#----------------------------------PLEASE NOTE---------------------------------#
#This file is the author's own work and represents their interpretation of the #
#song. You may only use this file for private study, scholarship, or research. #
#Unless specified otherwise, this is NOT an official tab from the band members.#
#------------------------------------------------------------------------------#

  Visit MetalTabs.com for more metal tablature
  
NAPALM DEATH-Inside The Torn Apart
Inside The Torn Apart-1997
Copyright Earache Records
Transcribed by Daniil Laletin
e-mail: dlaletin@mail.ru
version 2.0 October 2005

All corrections are welcome.

  " - tremolo
 / - slide down
 \ - slide up
 . - palm mute
 ~ - long sound
 x - rest
 p - pull off
 h - hammer on
 tr - trill
 () - ghost note, sustained note
 <> - let ring

Tuning from low to high: C# F# B E G# C#
========================================

 Riff 1
|----------------------------------------|
|----------------------------------------|
|-6666---666666---666666---666666-6/7-77-|
|----------------------------------------|gtr 1&2
|-4444-0-444444-0-444444-0-444444-4/5-55-|
|------0--------0--------0---------------|


 Riff 2
|----------------------------------|
|----------------------------------|
|----------------------------------|
|----------------------------------|gtr1
|-5-5-5-5-5-5-5-5-23333-23333-2333-|
|-----------------01111-01111-0111-|
|
|----------------------------------|
|----------------------------------|
|----------------------------------|
|----------------------------------|gtr 2
|-5-5-5-5-5-5-5-5-23333-23333-2333-|
|-5-5-5-5-5-5-5-5-01111-01111-0111-|
  . . . . . . . .


 Riff 3
|----------|
|----------|
|----------|
|----------|gtr 1
|-5-----55-|
|-5-----55-|
|       ..
|----------|
|----------|
|----------|
|----------|gtr 2
|-5-----55-|
|-5-----55-|
        ..

 Riff 4
|-----------------------------------------|
|-----------------------------------------|
|-----------------------------------------|
|--7---7--7---7-4---5--7---7--7---7-4-----|gtr 1
|-5555-5-5555-5---3---5555-5-5555-5---3-5-|
|-5-55---5-55---------5-55---5-55---------|
|
|-----------------------------------------|
|-----------------------------------------|
|-----------------------------------------|
|---------------4---5---------------4-----|gtr 2
|-5555-5-5555-5---3---5555-5-5555-5---3-5-|
|-5555-5-5555-5-------5555-5-5555-5-------|
  ....   ....         ....   ....

|-----------------------------------------|
|-----------------------------------------|
|---------------------------------7"------|
|--7---7--7---7-4---5--7---7--7-----------|gtr 1
|-5555-5-5555-5---3---5555-5-5555-5"------|
|-5-55---5-55---------5-55---5-55---------|
|
|-----------------------------------------|
|-----------------------------------------|
|---------------------------------7"------|
|---------------4---5---------------------|gtr 2
|-5555-5-5555-5---3---5555-5-5555-5"------|
|-5555-5-5555-5-------5555-5-5555---------|
  ....   ....         ....   ....

  Visit MetalTabs.com for more metal tablature

bottom separator

Contact Us | Privacy Policy | Disclaimer | Legal Notice
Copyright © 2001-2014 MetalTabs.com. All Rights Reserved.