top separator

Home

Forum

What's New

Submit a Tab

FAQ

Links

Contact Us

Link to Us

MetalTabs.com logo

Bands

0-9

A

B

C

D

E

F

G

H

I

J

K

L

M

N

O

P

Q

R

S

T

U

V

W

X

Y

Z

Search

What

Where
 

Napalm Death - "Section" Guitar Tab

Plain Text Version
More Napalm Death Tabs

Hits: 3654
Updated: 2005-12-30 01:18:26

 

By:

Daniil

sendpm.gif

email.gif

Important note
This tab is available online because we obtained explicit permission from Napalm Death or their label.


#----------------------------------PLEASE NOTE---------------------------------#
#This file is the author's own work and represents their interpretation of the #
#song. You may only use this file for private study, scholarship, or research. #
#Unless specified otherwise, this is NOT an official tab from the band members.#
#------------------------------------------------------------------------------#

  Visit MetalTabs.com for more metal tablature
  
NAPALM DEATH-Section
Inside The Torn Apart-1997
Copyright Earache Records
Transcribed by Daniil Laletin
e-mail: dlaletin@mail.ru
version 2.0 October 2005

All corrections are welcome.

  " - tremolo
 / - slide down
 \ - slide up
 . - palm mute
 ~ - long sound
 x - rest
 p - pull off
 h - hammer on
 tr - trill
 () - ghost note, sustained note
 <> - let ring

Tuning from low to high: C# F# B E G# C#
========================================

 Riff 1
|------------------|
|------------------|
|------------------|
|-4-----4----------|
|-2-333-2-66666666-|
|---111---44444444-|


 Riff 2
|------------------------------------------------------|
|------------------------------------------------------|
|------------------------------------------------------|
|------------------------------------------------------|
|---------4---------4--------------4---------4-7/8-8-8-|
|-0h3-0h3-2-0h3-0h3-2-2222-0h3-0h3-2-0h3-0h3-2-5/6-6-6-|
                      ....

 Fill 1 - with Riff 1
|----|
|-4"-|
|-0"-|
|----|
|----|
|----|



 Fill 1
|----------|
|-4"-------|
|-0"-------|
|----------|gtr 2
|----------|
|----------|
|
|----------|
|----------|
|----------|
|-4------4-|gtr 1
|-2-333--2-|
|---111----|


 Riff 3
|---------------------------------------------|
|-----5-----------5-------7"-----8"-7"-----8"-|
|-----5---5-------5---5-----------------------|
|---------5-----------5---4"-----5"-4"-----5"-|gtr 2
|-3-3---3-----3-3---3-------------------------|
|---------------------------------------------|
|
|---------------------------------------------|
|-------------------------7"-----8"-7"-----8"-|
|-5"------------------------------------------|
|-------------------------4"-----5"-4"-----5"-|gtr 1
|-3"------------------------------------------|
|---------------------------------------------|


 Outro - several times
|-----------|
|-7"-----8"-|
|-----------|
|-4"-----5"-|
|-----------|
|-----------|

  Visit MetalTabs.com for more metal tablature

bottom separator

Contact Us | Privacy Policy | Disclaimer | Legal Notice
Copyright © 2001-2014 MetalTabs.com. All Rights Reserved.