top separator

Home

Forum

What's New

Submit a Tab

FAQ

Links

Contact Us

Link to Us

MuSpy.com

MetalTabs.com logo

Bands

0-9

A

B

C

D

E

F

G

H

I

J

K

L

M

N

O

P

Q

R

S

T

U

V

W

X

Y

Z

Search

What

Where
 

Napalm Death - "Birth In Regress" Guitar Tab

Plain Text Version
More Napalm Death Tabs

Hits: 4135
Updated: 2005-12-30 01:21:16

 

By:

Daniil

sendpm.gif

email.gif

Important note
This tab is available online because we obtained explicit permission from Napalm Death or their label.


#----------------------------------PLEASE NOTE---------------------------------#
#This file is the author's own work and represents their interpretation of the #
#song. You may only use this file for private study, scholarship, or research. #
#Unless specified otherwise, this is NOT an official tab from the band members.#
#------------------------------------------------------------------------------#

  Visit MetalTabs.com for more metal tablature
  
NAPALM DEATH-Birth In Regress
Inside The Torn Apart-1997
Copyright Earache Records
Transcribed by Daniil Laletin
e-mail: dlaletin@mail.ru
version 2.0 October 2005

All corrections are welcome.

  " - tremolo
 / - slide down
 \ - slide up
 . - palm mute
 ~ - long sound
 x - rest
 p - pull off
 h - hammer on
 tr - trill
 () - ghost note, sustained note
 <> - let ring

Tuning from low to high: C# F# B E G# C#
========================================

 Riff 1a                           Riff 1b
|-------------------|             |-------------------|
|-------------------|             |-------------------|
|-------------------|             |--------------****-|
|-888888x-----------|gtr 1        |-888888x------8888-|gtr 1
|-777777x-----------|             |-777777x-****------|
|-666666x-----------|             |-666666x-6666------|
|                                 |
|-------------------|             |-------------------|
|-------------------|             |-------------------|
|-------------*-----|             |-------------*-----|
|-888888x-----8-----|gtr 2        |-888888x-----8-----|gtr 2
|-777777x-------x8--|             |-777777x-------x8--|
|-666666x-0-6---x6--|             |-666666x-0-6---x6--|




 Riff 2a                        Riff 2b
|-----------------|            |-----------------|
|-----------------|            |-----------------|
|-----------------|            |-----------------|
|-------8-------8-|gtr 1       |-------8-------8-|gtr 1
|-7--7--6-7-5-7-6-|            |-7--7--6-7-5-7-6-|
|-5--5----5-3-5---|            |-5--5----5-3-5---|
|
|-----------------|            |-----------------|
|-----------------|            |-----------------|
|-----------------|            |-----------------|
|-------8-------8-|gtr 2       |-----------------|gtr 2
|-7--7--6-7-5-7-6-|            |-------6-------6-|
|-5--5----5-3-5---|            |-5~\3----5-3-5---|



 Riff 3
|----------------------------------|
|----------------------------------|
|----------------------------------|
|-7~-------------7~----------------|gtr 1
|-0~-------------0~----------------|
|----------------------------------|
|
|----------------------------------|
|-----11-11-10--------11-11-10-----|
|-----10-10--9--------10-10--9-9---|
|------------------------------7---|gtr 2-clean
|-0~-------------0~----------------|
|----------------------------------|



 Riff 4
|---------------------------|
|---------------------------|
|---10--9-10--9-----10--9---|
|---------------7---------7-|gtr 1-clean
|-0-------------------------|
|---------------------------|
|
|---------------------------|
|---11-10-11-10-----11-10---|
|---------------9---------9-|
|---------------------------|gtr 2-clean
|-0-------------------------|
|---------------------------|


 Riff 5
|-----------------------------------------------------|
|-----------------------------------------------------|
|-----------------------------------------------------|
|---8p0-7p0-----8p0-7p0---7---8p0-7p0-----8p0-7p0---8-|gtr 1&2
|-0---------7-0---------7---0---------7-0---------7---|
|-----------------------------------------------------|


 Riff 6
|--------------------------------------------------------------|
|--------------------------------------------------------------|
|-9"-----------------------------------------------------------|
|--------------------------------------------------------------|gtr 1
|-7"-----------------------------------------------------------|
|--------------------------------------------------------------|
|
|--------------------------------------------------------------|
|--------------------------------------------------------------|
|-9p0-8p0-12p0-13p0-12p0-9p0-8p0-----9p0-8p0-12p0-13p0-12p0-9--|
|--------------------------------------------------------------|gtr 2
|--------------------------------------------------------------|
|--------------------------------------------------------------|

  Visit MetalTabs.com for more metal tablature

bottom separator

Contact Us | Privacy Policy | Disclaimer | Legal Notice
Copyright © 2001-2014 MetalTabs.com. All Rights Reserved.