top separator

Home

Forum

What's New

Submit a Tab

FAQ

Links

Contact Us

Link to Us

MuSpy.com

MetalTabs.com logo

Bands

0-9

A

B

C

D

E

F

G

H

I

J

K

L

M

N

O

P

Q

R

S

T

U

V

W

X

Y

Z

Search

What

Where
 

Skymning - "Memories" Guitar Tab

Plain Text Version
More Skymning Tabs

Hits: 3537
Rated: 4.00 out of 5 (1 vote)
Updated: 2003-10-26 13:02:25

 

By:

Darkenelf

sendpm.gif

email.gif

Important note
We did our best to reach Skymning and ask for their permission to publish this tab. Unfortunately they did not respond to our requests or we could not find a way to contact them. This tab is available online until Skymning tells us to take it down.


#----------------------------------PLEASE NOTE---------------------------------#
#This file is the author's own work and represents their interpretation of the #
#song. You may only use this file for private study, scholarship, or research. #
#Unless specified otherwise, this is NOT an official tab from the band members.#
#------------------------------------------------------------------------------#

  Visit MetalTabs.com for more metal tablature
  
Band: Skymning
Album: Stormchoirs
Song: Memories
Tabbed by: Martijn Wietsma (Darkenelf)
Tab date: 22-08-2003
Email: dalvanian@yahoo.com

Standard E Tuning

x = palm mute
h = hammer
p = pick
~ = pull string up

riff A (chords)
|---------------------------------------------------------|
|---------------------------------------------------------|
|---------------------------------------------------------|
|---------------------------2-----------------------------|
|-----7------5------3-------2-----------------------------|
|-333-5--333-3--333-1--333--0-----------------------------|
  xxx    xxx    xxx    xxx

riff A (lead)
|---------------------------------------------------------|
|---------------------------------------------------------|
|---------------------------------------------------------|
|-------10-10-7-9-------------10-10-7-9-------------------|
|-7-8p7-----------10----7-8p7-----------10----------------|
|---------------------------------------------------------|

|---------------------------------------------------------|
|---------------------------------------------------------|
|---------------------------------------------------------|
|-------10-10-7-9-------------5-2-4-----------------------|
|-7-8p7-----------10----2-3p2-------5---------------------|
|---------------------------------------------------------|

riff B (0:15)
|---------------------------------------------------------|
|---------------------------------------------------------|
|-----------------------------------10~-------------------|
|-------------------10----7----9--------------------------|
|----7----8----7------------------------------------------|
|-00---00---00---00----00---00---00-----------------------|
  xx   xx   xx   xx    xx   xx   xx

|---------------------------------------------------------|
|---------------------------------------------------------|
|---------------------------------------------------------|
|-------------------10----7----9--------------------------|
|----7----8----7--------------------555-------------------|
|-00---00---00---00----00---00------333-------------------|
  xx   xx   xx   xx    xx   xx      xxx

riff C (0:30)
|---------------------------------------------------------|
|---------------------------------------------------------|
|---------------------------------------------------------|
|---------------------------------------------------------|
|-7-----7-----7-----8-----8-----8-----7-----7-----7-------|
|---555---555---555---555---555---555---555---555---------|

|---------------------------------------------------------|
|---------------------------------------------------------|
|---------------------------------------------------------|
|-----5-----5-----5---------------------------------------|
|---------------------------------------------------------|
|-555---555---555---555-----------------------------------|

|---------------------------------------------------------|
|---------------------------------------------------------|
|---------------------------------------------------------|
|---------------------------------------------------------|
|-7-----7-----7-----8-----8-----8-----7-----7-----7------5|
|---555---555---555---555---555---555---555---555---555--3|

riff D (0:40)
|---------------------------------------------------------|
|---------------------------------------------------------|
|-------------------------------------5-----5-----5-------|
|---------------------------------------------------------|
|-7-----7-----7-----8-----8-----8-------------------------|
|---555---555---555---555---555---555---555---555---------|

|---------------------------------------------------------|
|---------------------------------------------------------|
|---------------------------------------------------------|
|-----5-----5-----5---------------------------------------|
|---------------------------------------------------------|
|-555---555---555---555-----------------------------------|

|---------------------------------------------------------|
|---------------------------------------------------------|
|-------------------------------------5-----5-----5-------|
|-------------------------------------------------------5~|
|-7-----7-----7-----8-----8-----8-------------------------|
|---555---555---555---555---555---555---555---555---555---|

repeat riff B 2x
repeat riff c 1x (1:06)
repeat riff D 1x

riff E (1:27)
|---------------------------------------------------------|
|---------------------------------------------------------|
|---------------------------------------------------------|
|-----------------------------10---10---10---10---10-9----|
|-7--7/9---9/10---10/12-12-----8----8----8----8----8-7----|
|-5--5/7---7/-8----8/10-10-------0----0----0--------------|

|---------------------------------------------------------|
|---------------------------------------------------------|
|---------------------------------------------------------|
|-7---7---7---9-----9\7-----------------------------------|
|-5---5---5---7-----7\5-----------------------------------|
|---0---0---0---------------------------------------------|

|---------------------------------------------------------|
|---------------------------------------------------------|
|---------------------------------------------------------|
|-----------------------------10---10---10---10---10-9----|
|-7--7/9---9/10---10/12-12-----8----8----8----8----8-7----|
|-5--5/7---7/-8----8/10-10-------0----0----0--------------|

|---------------------------------------------------------|
|---------------------------------------------------------|
|---------------------------------------------------------|
|-7---7---7---9-------------------------------------------|
|-5---5---5---7-------------------------------------------|
|---0---0---0---------------------------------------------|

riff F (1:49)
|---------------------------------------------------------|
|---------------------------------------------------------|
|---------------------------------------------------------|
|-9-----9-----9-----9\7---777-7--7--999-9---9\7-----------|
|-7-777---777---777-------555-5-----777-7---7\5-----------|
|---------------------------------------------------------|
                          xxx       xxx
riff G
|---------------------------------------------------------|
|---------------------------------------------------------|
|---------------------------------------------------------|
|-9--9--777-7--7/-999-9---9\7-----------------------------|
|-7--7--555-5--5/-777-7---7\5-----------------------------|
|---------------------------------------------------------|
        xxx       xxx				(4x)

riff H (2:26) (fast part) (lead)
|---------------------------------------------------------|
|---------------------------------------------------------|
|---------------------------------------------------------|
|-4---4-7-5---4h5h7-----4---4-7-5---4h5h7-----------------|
|---7-------7-------------7-------7-----------------------|
|---------------------------------------------------------|

|---------------------------------------------------------|
|---------------------------------------------------------|
|-------4--------4--------4-------------------------------|
|-4---4----4---4----4---4------7--------------------------|
|---7--------7--------7--------5--------------------------|
|---------------------------------------------------------|

riff H (chords)
|---------------------------------------------------------|
|---------------------------------------------------------|
|---------------------------------------------------------|
|-9-----7-----5---5---5-----7-----------------------------|
|-7-----5-----3---3---3-----5-----------------------------|
|---------------------------------------------------------|
 x      x     x   x   x     x

riff I (2:36) (fast part)
|---------------------------------------------------------|
|---------------------------------------------------------|
|---------------------------------------------------------|
|-99999999-77777777-55555555-55555555-7777----------------|
|-77777777-55555555-33333333-33333333-5555----------------|
|---------------------------------------------------------|
						(4x)
repeat riff B 2x (3:17)
repeat riff C 1x (3:33)
repeat riff D 1x

riff J (3:55) ending riff (slow part)
|---------------------------------------------------------|
|---------------------------------------------------------|
|---------------------------------------------------------|
|--------10~------------------10~-------------------------|
|-7~-8~------10~-------7~-8~------10~---------------------|
|---------------------------------------------------------|

  Visit MetalTabs.com for more metal tablature

bottom separator

Contact Us | Privacy Policy | Disclaimer | Legal Notice
Copyright © 2001-2014 MetalTabs.com. All Rights Reserved.