top separator

Home

Forum

What's New

Submit a Tab

FAQ

Links

Contact Us

Link to Us

MetalTabs.com logo

Bands

0-9

A

B

C

D

E

F

G

H

I

J

K

L

M

N

O

P

Q

R

S

T

U

V

W

X

Y

Z

Search

What

Where
 

Vile - "Stench of the Deceased" Guitar Tab

Plain Text Version
More Vile Tabs

Hits: 3183
Updated: 2003-10-26 12:55:56

 

By:

BrutalGtrPlayer

sendpm.gif

email.gif

Important note
This tab is available online because we obtained explicit permission from Vile or their label.


#----------------------------------PLEASE NOTE---------------------------------#
#This file is the author's own work and represents their interpretation of the #
#song. You may only use this file for private study, scholarship, or research. #
#Unless specified otherwise, this is NOT an official tab from the band members.#
#------------------------------------------------------------------------------#

  Visit MetalTabs.com for more metal tablature
  
Band:  (Vile)
Album: (Stench of the Deceased)
Song:  (Stench of the Deceased)

Copyright (c)  (Self-Financed) (1999)
Version 1.0 - (8/20/03)

Transcribed By: (Kevin Frasard)
Email:          (TheWholeFahKingShow@hotmail.com)


.  - palm mute           /  - slide up to
\  - slide down to       ~  - vibrato
h  - hammer on           b  - Bend
p  - pull off            Suffixes for bend
t  - tap                 f  - full bend    h - half bend
ph - pinched harmonic    q  - quarter bend t - tap bend
*  - see comment         ^  - Hold bend    r release bend
x  - Stuccatto           ~  - vibrato bend
,  - slight palm mute    () - ghost note, sustained note
"  - tremolo note        <> - Trill

Tunning A(or 1 whole step down on a 7-string)



     Riff 1 (4x)      *Gtr.1
                      *Gtr.2(*harmonize first time only)
  p.m......................................\      p.m   p.m  p.m.\
-------------------------------------------------------------------
-------------------------------------------------------------------
-----------------------777-------------------4-3-4-----------------
--8-11-7-----8-7-------999-----------3-2-3-----------3-2---2-------
---------8-9-----8-777-----777-1-0-1-------1-------1-----3---3-1-3-
  Riff 2 (2x)
                           Pause for Riff 2
       p.m    p.m   p.m.\  Bass line  (2x)
--------------------------|---------|------|
--------------------------|---------|------|
--------------------------|---------|------|
--3-2-5---4-2-----2-------|---------|------|
--------3-----3-1---------|---------|------|
--------------------1-3-2-|---------|------|
   Riff 3 (6x)

  p.m                p.m
-----------------------------
-----------------------------
-----------------------------
-----------------------------
--4-4-5--4--6--5--7--4-4-444-
--2-2-3--2--4--3--5--6-6-666-
                             Riff 4 (2x)
             (2x)                             (2x)
 p.m     p.m     p.m   p.m   p.m   p.m     p.m     p.m\   p.m..\
----------------------------------|------------------------------
----------------------------------|------------------------------
----------------------------------|------------------------------
----7-6-7---7-6-7---7-6---5-------|---5-4-5---4-3-4----444-------
------------------------7---6---4-|-----------------333---333666-
--4-------4-------4-----------3---|-2-------2--------------------

        (2x)                      Riff 1 slightly Riff 4 Riff 3
       p.m p.m p.m  p.m.\  Riff 2 slower (groove)  (2x)   (6x)
--------------------------|------|---------------|------|------|
--------------------------|------|---------------|------|------|
--------------------------|------|---------------|------|------|
--3-2-5---4-2-5---2-------|------|---------------|------|------|
--------3-------1---------|------|---------------|------|------|
--------------------1-3-2-|------|---------------|------|------|
             Riff 5 (2x)

 p.m            p.m.\    p.m    p.m\                          p.m.
-------------------------------------------------------------------
-------------------------------------------------------------------
-------------------------------------------------------------------
-------------------------------------------------------------------
--4--------sl.--2-4-5-4--3-4-7--4--7-3---(3)---4----7----3-4--2--3-
--2--3--2--2\5--0-2-3-6--5-6-9--6--9-5---(5)---6----9----5-6--0--1-

1/2  r                                                Rhy. Fig 1
        p.h~p.m\                                  p.m            p.m
------------------------------------------------|----------------------
------------------------------------------------|----------------------
------------------------------------------------|----------------------
------------------------------------------------|----------------------
-^----------2--3--sl.--------3---(3)-----4----1-|--4--------sl.--2-4-5-
-2--(2)--2--0--1--1\4--3--2--5---(5)-----6----3-|--2--3--2--2\5--0-2-3-


    p.m     p.m
----------------|
----------------|
----------------|
----------------|
-4--3-4--7--4-7-|
-6--5-6--9--6-9-|
                       Riff 6 (2x)
 slight                                          slight      slight
  p.m\        slight p.m.............\            p.m\        p.m\
---------------------------------------------------------------------------
---------------------------------------------------------------------------
----------7777--------------------------------------------7777--------7777-
------5555----------------------------55554444--------5555--------5555-----
--3333--------333355556666333355556666--------55553333--------3333---------
---------------------------------------------------------------------------
                        Riff 5(2x)
                        (over solo)
                        Followed by        slight      slight
 slight p.m.\           Rhy. Fig 1  Riff 6  p.m\        p.m\        slight..
-----------------------|-----------|------|---------------------------------
-----------------------|-----------|------|---------------------------------
-----------------------|-----------|------|---------7777--------7777--------
-------------55554444--|-----------|------|-----5555--------5555------------
-333355556666--------5-|-----------|------|-3333--------3333--------33335555
-----------------------|-----------|------|---------------------------------

                slight      slight
 ...\            p.m\        p.m\        slight p.m.\          End
---------------------------------------------------------------
---------------------------------------------------------------
-------------------------7777--------7777----------------------
-----55554444--------5555--------5555----------------55554444--
-6666--------55553333--------3333--------333355556666--------5-
---------------------------------------------------------------

  Visit MetalTabs.com for more metal tablature

bottom separator

Contact Us | Privacy Policy | Disclaimer | Legal Notice
Copyright © 2001-2014 MetalTabs.com. All Rights Reserved.