top separator

Home

Forum

What's New

Submit a Tab

FAQ

Links

Contact Us

Link to Us

MuSpy.com

MetalTabs.com logo

Bands

0-9

A

B

C

D

E

F

G

H

I

J

K

L

M

N

O

P

Q

R

S

T

U

V

W

X

Y

Z

Search

What

Where
 

My Dying Bride - "A Kiss to Remember" Bass Tab

Plain Text Version
More My Dying Bride Tabs

Hits: 6787
Rated: 3.00 out of 5 (2 votes)
Updated: 2001-06-04 07:57:22

 

Important note
This tab is available online because we obtained explicit permission from My Dying Bride or their label.


#----------------------------------PLEASE NOTE---------------------------------#
#This file is the author's own work and represents their interpretation of the #
#song. You may only use this file for private study, scholarship, or research. #
#Unless specified otherwise, this is NOT an official tab from the band members.#
#------------------------------------------------------------------------------#

  Visit MetalTabs.com for more metal tablature
  
Taken with permission from www.MyDyingBride.org

A Kiss To Remember (Bass)

Tuning: Down 1 1/2 steps to C#
        C# F# B E

Intro/Opening Verses

For ease of playing, it is very important to make sure you get the position of the notes
on the neck right. As Aaron begins singing, there are variations in the riff, such as the
four opening notes becoming five.

B  ---------2-2-2-2-2-2-2po0-0-0-0-0-3-3-3-3---
F# --------------------------------------------
C# -0-0-0-0------------------------------------

Bridge

The next riff is pretty simple... just pull one note, leave it for a while, then repeat it
three times quickly.

B  -2--2-2-2------------------------------------------
F# -----------3--3-3-3------------1--1-1-1------------
C# ---------------------2--2-2-2--------------0-------

Go back to the verse riff and play it with a slide-down in place of the pull-off. Then play
the following:

F# -----------------2---1-1-1-1-1-1------------------------------------
C# -0--0-0-0-0-0-0----3-------------3-5---1--3--0----------------------

Harmony Guitar Section

A lot of these notes are sustained or held.

B  --------------7--5--4----
F# --------2----------------
C# --0----------------------

After the piano interlude, repeat the verse riffs.

--------------------------------------------------------------------------------
Tabs supplied by Dean "Cadaverous" McIntosh. Worked out by Shane Curl and Dean McIntosh.

  Visit MetalTabs.com for more metal tablature

bottom separator

Contact Us | Privacy Policy | Disclaimer | Legal Notice
Copyright © 2001-2014 MetalTabs.com. All Rights Reserved.