top separator

Home

Forum

What's New

Submit a Tab

FAQ

Links

Contact Us

Link to Us

MetalTabs.com logo

Bands

0-9

A

B

C

D

E

F

G

H

I

J

K

L

M

N

O

P

Q

R

S

T

U

V

W

X

Y

Z

Search

What

Where
 

On Thorns I Lay - "Oceans" Guitar Tab

Plain Text Version
More On Thorns I Lay Tabs

Hits: 4039
Rated: 4.00 out of 5 (3 votes)
Updated: 2003-10-12 10:06:32

 

By:

adrenaline

sendpm.gif

email.gif

Important note
We did our best to reach On Thorns I Lay and ask for their permission to publish this tab. Unfortunately they did not respond to our requests or we could not find a way to contact them. This tab is available online until On Thorns I Lay tells us to take it down.


#----------------------------------PLEASE NOTE---------------------------------#
#This file is the author's own work and represents their interpretation of the #
#song. You may only use this file for private study, scholarship, or research. #
#Unless specified otherwise, this is NOT an official tab from the band members.#
#------------------------------------------------------------------------------#

  Visit MetalTabs.com for more metal tablature
  
Band:  (On Thorns I Lay)
Album: (Orama 97)
Song:  (Oceans)

Transcribed By: (Adel Restom (adrenaline detonator))
Email:          (adrenaline@ureach.com)

		Dedicated 2 Eternal Darkness

Well boys & girls i didn't tab the clean tone part and the solo at the end
(i find the solo a bit hard if u have it send it on & i'll post it under
your name in this tab)
Tune your guitar a half step down
6th D#
5th G#
4th C#
3d  F#
2nd A#
1st D#

~:vibrato.
p:pull of.
h:hammer on.
s:slide.
sd:slide down to low notes.
/:bend up.
\:bend down.
x:palm muted.

|---------------------------------------------------------------------------------|
|---------------------------------------------------------------------------------|
|---------------------------------------------------------------------------------|
|-----X-X----X----X-X------------X------------X-X--X-X-5-X-6-X-X-5/6\5-x-x-x-6-5~-|
|-8sd-8-8-10-8-11-8-8-10/11\10P8-8-10/11\10P8-8-8--4-4---4---4-4-------4-4-4------|
|---------------------------------------------------------------------------------|

|---------------------------------------------------------------------------------|
|---------------------------------------------------------------------------------|
|---------------------------------------------------------------------------------|
|--X-X----X-X----X------------X------------X-X--X-X-5-X-X-6-X-5/6\5-x-x-x-6-5~----|
|--8-8-10-8-8-11-8-10/11\10P8-8-10/11\10P8-8-8--4-4---4-4---4-------4-4-4---------|
|---------------------------------------------------------------------------------|

|---------------------------------------------------------------------------------|
|---------------------------------------------------------------------------------|
|---------------------------------------------------------------------------------|
|--X-X----X----X-X------------X------------X-X--X-X-5-X-X-6-X-5/6\5-x-x-x-6-5~----|
|--8-8-10-8-11-8-8-10/11\10P8-8-10/11\10P8-8-8--4-4---4-4---4-------4-4-4---------|
|---------------------------------------------------------------------------------|

|---------------------------------------------------------------------------------|
|---------------------------------------------------------------------------------|
|---------------------------------------------------------------------------------|
|--X-X----X-X----X------------X------------X-X--X-X-5-X-X-6-X-5/6\5-x-x-x-6-5~----|
|--8-8-10-8-8-11-8-10/11\10P8-8-10/11\10P8-8-8--4-4---4-4---4-------4-4-4---------|
|---------------------------------------------------------------------------------|

|---------------------------------------------------------------------------------|
|---------------------------------------------------------------------------------|
|---------------------------------------------------------------------------------|
|--X-X----X----X-X------------X------------X-X--X-X-5-X-6-X-X-5/6\5-x-x-x-6-5~----|
|--8-8-10-8-11-8-8-10/11\10P8-8-10/11\10P8-8-8--4-4---4---4-4-------4-4-4---------|
|---------------------------------------------------------------------------------|

|---------------------------------------------------------------------------------|
|---------------------------------------------------------------------------------|
|---------------------------------------------------------------------------------|
|--X-X----X-X----X------------X------------X-X--X-X-5-X-X-6-X-5/6\5-x-x-x-6-5~----|
|--8-8-10-8-8-11-8-10/11\10P8-8-10/11\10P8-8-8--4-4---4-4---4-------4-4-4---------|
|---------------------------------------------------------------------------------|

|---------------------------------------------------------------------------------|
|---------------------------------------------------------------------------------|
|---------------------------------------------------------------------------------|
|--X-X----X----X-X------------X------------X-X--X-X-5-X-6-X-X-5/6\5-x-x-x-6-5~----|
|--8-8-10-8-11-8-8-10/11\10P8-8-10/11\10P8-8-8--4-4---4---4-4-------4-4-4---------|
|---------------------------------------------------------------------------------|

|---------------------------------------------------------------------------------|
|---------------------------------------------------------------------------------|
|---------------------------------------------------------------------------------|
|--X-X----X----X-X------------X------------X-X--X-X-5-X-X-6-X-5/6\5-x-x-x-6-5~----|
|--8-8-10-8-11-8-8-10/11\10P8-8-10/11\10P8-8-8--4-4---4-4---4-------4-4-4---------|
|---------------------------------------------------------------------------------|

|---------------------------------------------------------------------------------|
|---------------------------------------------------------------------------------|
|---------------------------------------------------------------------------------|
|--X-X----X----X-X------------X------------X-X--X-X-5-X-X-6-X-5/6\5-x-x-x-6-5~----|
|--8-8-10-8-11-8-8-10/11\10P8-8-10/11\10P8-8-8--4-4---4-4---4-------4-4-4---------|
|---------------------------------------------------------------------------------|

|---------------------------------------------------------------------------------|
|---------------------------------------------------------------------------------|
|---------------------------------------------------------------------------------|
|--X-X----X-X----X------------X------------X-X--X-X-5-X-X-6-X-5/6\5-x-x-x-6-5~----|
|--8-8-10-8-8-11-8-10/11\10P8-8-10/11\10P8-8-8--4-4---4-4---4-------4-4-4---------|
|---------------------------------------------------------------------------------|

|---------------------------------------------------------------------------------|
|---------------------------------------------------------------------------------|
|---------------10-8-----------------------------10-8-----------------------------|
|--10-8--------------11-10-8-10-11--10-8--------------11-10-8-10H11P10P8H10-------|
|-------11-8-11--------------------------11-8-11----------------------------------|
|---------------------------------------------------------------------------------|

|---------------------------------------------------------------------------------|
|---------------------------------------------------------------------------------|
|---------------10-8-----------------------------10-8-----------------------------|
|--10-8--------------11-10-8-10-11--10-8--------------11-10-8-10H11P10P8H10-------|
|-------11-8-11--------------------------11-8-11----------------------------------|
|---------------------------------------------------------------------------------|

|---------------------------------------------------------------------------------|
|---------------------------------------------------------------------------------|
|---------------------------------------------------------------------------------|
|--X-X----X----X-X------------X------------X-X--X-X-5-X-6-X-X-5/6\5-x-x-x-6-5~----|
|--8-8-10-8-11-8-8-10/11\10P8-8-10/11\10P8-8-8--4-4---4---4-4-------4-4-4---------|
|---------------------------------------------------------------------------------|

|---------------------------------------------------------------------------------|
|---------------------------------------------------------------------------------|
|---------------------------------------------------------------------------------|
|--X-X----X-X----X------------X------------X-X--X-X-5-X-X-6-X-5/6\5-x-x-x-6-5~----|
|--8-8-10-8-8-11-8-10/11\10P8-8-10/11\10P8-8-8--4-4---4-4---4-------4-4-4---------|
|---------------------------------------------------------------------------------|

|---------------------------------------------------------------------------------|
|---------------------------------------------------------------------------------|
|---------------------------------------------------------------------------------|
|--X-X----X----X-X------------X------------X-X--X-X-5-X-X-6-X-5/6\5-x-x-x-6-5~----|
|--8-8-10-8-11-8-8-10/11\10P8-8-10/11\10P8-8-8--4-4---4-4---4-------4-4-4---------|
|---------------------------------------------------------------------------------|

|---------------------------------------------------------------------------------|
|---------------------------------------------------------------------------------|
|---------------------------------------------------------------------------------|
|--X-X----X----X-X------------X------------X-X--X-X-5-X-X-6-X-5/6\5-x-x-x-6-5~----|
|--8-8-10-8-11-8-8-10/11\10P8-8-10/11\10P8-8-8--4-4---4-4---4-------4-4-4---------|
|---------------------------------------------------------------------------------|

|---------------------------------------------------------------------------------|
|---------------------------------------------------------------------------------|
|---------------------------------------------------------------------------------|
|--3~-----------------------------------------------------------------------------|
|--3~-----------------------------------------------------------------------------|
|--1~-----------------------------------------------------------------------------|

|---------------------------------------------------------------------------------|
|---13~-11~-----------------------------------------------------------------------|
|-----------12~-10~---------------------------------------------------------------|
|---------------------------------------------------------------------------------|
|---------------------------------------------------------------------------------|
|---------------------------------------------------------------------------------|

Repeat the next 2 mesurments 4 times

|---------------------------------------------------------------------------------|
|---------------------------------------------------------------------------------|
|---------------------------------------------------------------------------------|
|----X-X----X-X----X-X------------------------------------------------------------|
|--8-8-8-10-8-8-11-8-8-X--X--X--X-------X-X-10-X-X-11-X-X-X-X-X-X-----------------|
|----------------------10-10-10-10-9~-9-9-9----9-9----9-9-9-9-9-9-6~--------------|

|---------------------------------------------------------------------------------|
|---------------------------------------------------------------------------------|
|---------------------------------------------------------------------------------|
|--------5-----6/7\6--------------------------------------------------------------|
|----X-X---X-X-------X-X-X-X-----8~-----10~---------------------------------------|
|--6-6-6---6-6-------6-6-6-6-6-8----8-9-------------------------------------------|

|---------------------------------------------------------------------------------|
|---------------------------------------------------------------------------------|
|---------------------------------------------------------------------------------|
|--3~-----------------------------------------------------------------------------|
|--3~-----------------------------------------------------------------------------|
|--1~-----------------------------------------------------------------------------|

after the clean tone comes this

the next 3 chords play in the back ground change the chord by listen..

|---------------------------------------------------------------------------------|
|---------------------------------------------------------------------------------|
|--x------------------------------------------------------------------------------|
|--10-------------------x--------------------x------------------------------------|
|--8--------------------10-------------------8------------------------------------|
|-----------------------8--------------------6------------------------------------|

repaet :

|---------------------------------------------------------------------------------|
|--------------13~----------------------------------------------------------------|
|--10~-12~-13~-----9~-9h10p9s7~s6~------------------------------------------------|
|---------------------------------------------------------------------------------|
|---------------------------------------------------------------------------------|
|---------------------------------------------------------------------------------|

a small part of the solo

|----------------------------------------------------x-x--------------------------|
|-------------------------------------------x-x------8-8-9p8----------------------|
|--12p10-12p10----12p10-12p10----x--x-------8-8-10p8------------------------------|
|--------------10-------------10-10-10-10s8---------------------------------------|
|---------------------------------------------------------------------------------|
|---------------------------------------------------------------------------------|

then repeat from the begging i guess....

  Visit MetalTabs.com for more metal tablature

bottom separator

Contact Us | Privacy Policy | Disclaimer | Legal Notice
Copyright © 2001-2014 MetalTabs.com. All Rights Reserved.