top separator

Home

Forum

What's New

Submit a Tab

FAQ

Links

Contact Us

Link to Us

MuSpy.com

MetalTabs.com logo

Bands

0-9

A

B

C

D

E

F

G

H

I

J

K

L

M

N

O

P

Q

R

S

T

U

V

W

X

Y

Z

Search

What

Where
 

Thyrfing - "Sweoland Conqueror" Guitar Tab

Plain Text Version
More Thyrfing Tabs

Hits: 3007
Rated: 4.00 out of 5 (1 vote)
Updated: 2003-10-12 09:26:59

 

By:

sendpm.gif

email.gif

Important note
This tab is available online because we obtained explicit permission from Thyrfing or their label.


#----------------------------------PLEASE NOTE---------------------------------#
#This file is the author's own work and represents their interpretation of the #
#song. You may only use this file for private study, scholarship, or research. #
#Unless specified otherwise, this is NOT an official tab from the band members.#
#------------------------------------------------------------------------------#

  Visit MetalTabs.com for more metal tablature
  
                                SWEOLAND CONQUEROR
                             (As recorded by Thyrfing
                            from the 2000 Urkraft album)
                          VERSION 1.0 - October 20th 2002


Transcribed by Cristi Rachitovan
mail: decietful@hotmail.com
IRC:  undernet's #metal as "Stromblad"

h = hammer-on      . = palm mute
p = pull-off      ah = artificial harmonic
/ = slide
linked tablines are for 2 guitars


Tune to 1 whole step down (DGCFAD)
I did not waste my time noting the timing.


Riff A *4x (0:00 - 0:28)
D|--7---7---7--8--8--7--7---10--7--7---7--8--7--5--7------|
A|--7---7---7--8--8--7--7---10--7--7---7--8--7--5--7------|
F|--9---9---9-10-10--9--9---12--9--9---9-10--9--7--9------|
C|--9---9---9-10-10--9--9---12--9--9---9-10--9--7--9------|
G|--7---7---7--8--8--7--7---10--7--7---7--8--7--5--7------|
D|--7---7---7--8--8--7--7---10--7--7---7--8--7--5--7------|
 |                                                        |
D|--------------------------------------------------------|
A|--------------------------------------------------------|
F|--------------------------------------------------------|
C|--2-----------------------------------------------------|
G|--2-----------------------------------------------------|
D|--0-----------------------------------------------------|

Riff A.1 (0:28 - 1:49)
D|--7---7---7--8--8--7--7---10--7--7---7--8--7--5--7------|
A|--7---7---7--8--8--7--7---10--7--7---7--8--7--5--7------|
F|--9---9---9-10-10--9--9---12--9--9---9-10--9--7--9------|
C|--9---9---9-10-10--9--9---12--9--9---9-10--9--7--9------|
G|--7---7---7--8--8--7--7---10--7--7---7--8--7--5--7------|
D|--7---7---7--8--8--7--7---10--7--7---7--8--7--5--7------|
 |                                                        |
D|--------------------------------------------------------|
A|--------------------------------------------------------|
F|--------------------------------------------------------|
C|--2-----------------------------------------------------|
G|--2------------------------------------------------3-3-3|
D|--0------------------------------------------------1-1-1|
                                                     .....
Riff B (1:50 - 1:57)
D|--------------------------------------------------------|
A|--------------------------------------------------------|
F|--------------------------------------------------------|
C|--------------2----------------/9--7--------------------|
G|--2-2-2-2-----2-----2-2-2-2----/7--5--------------------|
D|--1-0-0-0--0--0-----1-0-0-0--0--------------------------|
    .......  .        .......  .
D|--------------------------------------------------------|
A|--------------------------------------------------------|
F|--------------------------------------------------------|
C|--------------2----------------/9--7---5--7-------------|
G|--2-2-2-2-----2-----2-2-2-2----/7--5---3--5-------------|
D|--1-0-0-0--0--0-----1-0-0-0--0-------0------------------|
    .......  .        .......  .       .

Riff C (1:58 - 2:06)
D|---------------------------------------------|
A|---------------------------------------------|
F|---------------------------------------------|
C|--9----------9\------9-----------------------|
G|--7----------9\------7----------9-9-9-9-9-9--|
D|--7-7-10p8-5-7\------7-7-10p8-5-7-7-7-7-7-7--|
      .      .           .      . ...........
D|----------------------------------------|-------------|---------|
A|----------------------------------------|-------------|---------|
F|----------------------------------------|---3-times---|---------|
C|--9----------9\------9----------9-5-7-4-|-------------|---------|
G|--7----------9\------7----------7-3-5-2-|-2-2-2-2-2-2-|-2-2-2-2-|
D|--7-7-10p8-5-7\------7-7-10p8-5-7-3-5-2-|-0-0-0-0-0-0-|-0-0-0-0-|
      .      .           .      .           ...........   .......
                    first time stop here^
Riff B
Riff C

Riff D1 *2x (2:27 - 2:44)
D|-------------------------------------------------------|
A|-------------------------------------------------------|
F|-------------------------------------------------------|
C|--0-9-7-9---9-9br-7\6----------------------------------|
G|----------------------7--5-8p7-7-5---5-5h7h8-7-----3---|
D|-------------------------------------------------------|
 |                                                       |
D|-------------------------------------------------------|
A|-------------------------------------------------------|
F|-------------------------------------------------------|
C|--------2------------------------5-----------7-----3---|
G|--------2------------------------5-----------7-----3---|
D|--------0------------------------3-----------5-----1---|

Riff D2 *2x (2:44 - 2:59)
D|---------------------------------------------------------|
A|---------------------------------------------------------|
F|---------------------------------------------------------|
C|--0-9-7-9---9-9br-7\6------------------------------------|
G|----------------------7--5-8p7-7-5---5-5h7h8-7-----3-----|
D|---------------------------------------------------------|
 |                                                         |
D|---------------------------------------------------------|
A|---------------------------------------------------------|
F|---------------------------------------------------------|
C|--------2------------------------5-----------7-----3-----|
G|--------2------------------------5-----------7-----3-----|
D|--------0-00000-00000-00000-0000-3-33333-33335-55551-1111|
            ..... ..... ..... ....   ..... ....  ....  ....

Riff E *2 - (2:59 - 3:06)
D|----------------------------------------------|
A|----------------------------------------------|
F|----------------------------------------------|
C|----9---------9h10-9--------ah--------9--7-9--|
G|----7--7-9-10--------10-9-7-9~----7-9-7--5-7--|
D|-------------------------------10-------------|
 |       ......        ......    ......         |
D|----------------------------------------------|
A|----------------------------------------------|
F|----------------------------------------------|
C|--9-9-------------------------7-------9--7-9\-|
G|--7-7-------------------------5-------7--5-7\-|
D|--0-0-----------------------------------------|


Riff F *2x (3:06 - 3:20)
D|------------------------------------------------------------------|
A|------------------------------------------------------------------|
F|------------------------------------------------------------------|
C|--99-------99-------77-------9--7-9\-------99-------77-------9--7-|
G|--77-------77-------55-------7--5-7\-------77-------55-------7--5-|
D|--00-0-0-0----0-0-0----0-0-0---------0-0-0----0-0-0----0-0-0------|
 |     .....    .....    .....         .....    .....    .....      |
D|------------------------------------------------------------------|
A|------------------------------------------------------------------|
F|------------------------------------------------------------------|
C|-----------------------------9--7-9\-------------------------9--7-|
G|--22-------22-------55-------7--5-7\-------22-------55-------7--5-|
D|--00-0-0-0-00-0-0-0-00-0-0-0---------0-0-0-00-0-0-0-00-0-0-0------|
       .....    .....    .....         .....    .....    .....

RIFF G *2x (3:20 - 3:34)
D|---------------------------------------------------------------|
A|---------------------------------------------------------------|
F|---------------------------------------------------------------|
C|--22-------------22-----------5-------------------------7---9--|
G|--00-0-0-0-5---7-00-0-0-0-5---3-33-------5---7-55-------5-5-7--|
D|-----------3-3-5----------3-3---11-1-1-1-3-3-5-33-3-3-3--------|
       .....   .      .....   .      .....   .      .....   .

Riff F  *2x
Riff G  *2x
Riff B
Riff C
Riff B
Riff C
Riff D1 *2x
Riff D2 *2x

Riff H1 (5:11 - 6:29)
D|--------------------------------------------------|
A|--------------------------------------------------|
F|--------------------------------------------------|
C|--------------------------------------------------|
G|--7----------10---12--10---9---7-------------5-7--|
D|--5-----------8---10---8---7---5-------------3-5--|
* skip the last chord on last repeat

Riff H2
D|--------------------------------------------------------|
A|--------------------------------------------------------|
F|--------------------------------------------------------|
C|--------------------------------------------------------|
G|--7-7-----5-7-7---10--12-10--9--7-----7-7-7-555-7--5-7--|
D|--5-5-3-3-3-5-5----8--10--8--7--5-----5-5-5-333-5--3-5--|
        ...                                   ...

minor variations on this riff - same notes however

So this is it. Cheers.

  Visit MetalTabs.com for more metal tablature

bottom separator

Contact Us | Privacy Policy | Disclaimer | Legal Notice
Copyright © 2001-2014 MetalTabs.com. All Rights Reserved.