top separator

Home

Forum

What's New

Submit a Tab

FAQ

Links

Contact Us

Link to Us

MetalTabs.com logo

Bands

0-9

A

B

C

D

E

F

G

H

I

J

K

L

M

N

O

P

Q

R

S

T

U

V

W

X

Y

Z

Search

What

Where
 

Thyrfing - "Hednaland" Guitar Tab

Plain Text Version
More Thyrfing Tabs

Hits: 2737
Updated: 2003-10-12 09:22:01

 

By:

sendpm.gif

email.gif

Important note
This tab is available online because we obtained explicit permission from Thyrfing or their label.


#----------------------------------PLEASE NOTE---------------------------------#
#This file is the author's own work and represents their interpretation of the #
#song. You may only use this file for private study, scholarship, or research. #
#Unless specified otherwise, this is NOT an official tab from the band members.#
#------------------------------------------------------------------------------#

  Visit MetalTabs.com for more metal tablature
  
                                   HEDNÄLÄND
                             (As recorded by Thyrfing
                          from the 1998 Thyrfing album )
                         VERSION 1.0 - October 21st 2002


Transcribed by Cristi Rachitovan
mail: decietful@hotmail.com
IRC:  undernet's #metal as "Stromblad"

... = palm mute
 /  = slide

I transcribed this in a few mins but i think its accurate.

Normal tuning.
I did not waste my time noting the timing.

1) intro - clean tone (0:00 - 0:08)
E|---------------------------------------|
B|---------------------------------------|
G|---------------------------------------|
D|------9-------9---8-----9-------9---8--|
A|----7---7---7---------7---7---7--------|
E|--0-------0-----0---0-------0-----0----|

2) repeat this 4 times (0:08 - 0:46)
E|--------------------------------------------|
B|--------------------------------------------|
G|--------------------------------------------|
D|--8-8-8--8-8-9-9-6-6--8-8-8--8-8-9-9-13-13--|
A|--6-6-6--6-6-7-7-4-4--6-6-6--6-6-7-7-11-11--|
E|--------------------------------------------|

E|--------------------------------------------|---------|
B|--------------------------------------------|---------|
G|--------------------------------------------|---------|
D|--8-8-8--8-8-9-9-6-6--4----------6----------|--2------|
A|--6-6-6--6-6-7-7-4-4--4----------6----------|--2------|
E|----------------------2----------4----------|--0------|
                                              |4th time |
3) repeat 2 1/2 times (0:48 - 1:59)
E|----------------------------------------------------------|
B|----------------------------------------------------------|
G|----------------------------------------------------------|
D|----------------------------------------------------------|
A|--2-5-7-7--7-7/9-10-10\9-9-5----2-5-7-7--7-7\5-5-5\3-3-3--|
E|--0-3-5-5--5-5/7--8--8\7-7-3----0-3-5-5--5-5\3-3-3\1-1-1--|

E|----------------------------------------------------------|
B|----------------------------------------------------------|
G|----------------------------------------------------------|
D|----------------------------------------------------------|
A|--2-5-7-7--7-7/9-10-10\9-9-5----2-5-7-7--7-7\5-5-5\3-3-3--|
E|--0-3-5-5--5-5/7--8--8\7-7-3----0-3-5-5--5-5\3-3-3\1-1-1--|

E|----------------------------------------------------------|
B|----------------------------------------------------------|
G|----------------------------------------------------------|
D|--2-5-7-7--7-7/9-10-10\9-9-5----2-5-7-7--7-7\5-5-5\3-3-3--|
A|--0-3-5-5--5-5/7--8--8\7-7-3----0-3-5-5--5-5\3-3-3\1-1-1--|
E|----------------------------------------------------------|

E|----------------------------------------------------------|
B|----------------------------------------------------------|
G|----------------------------------------------------------|
D|--2-5-7-7--7-7/9-10-10\9-9-5----2-5-7-7--7-7\5-5-5\3-3-3--|
A|--0-3-5-5--5-5/7--8--8\7-7-3----0-3-5-5--5-5\3-3-3\1-1-1--|
E|----------------------------------------------------------|


4) the cool keyboard part - repeat this 2 times (1:59 - 2:36)
E|---------------------------------------------------------------------------|
B|---------------------------------------------------------------------------|
G|--9-----------------5-----------------9-----------------7------------------|
D|--9--9-9-9-9--9-9-9-5--5-5-5-5--5-5-5-9--9-9-9-9--9-9-9-7--7-7-7-7--7------|
A|--7--7-7-7-7--7-7-7-3--3-3-3-3--3-3-3-7--7-7-7-7--7-7-7-5--5-5-5-5--7-7-7--|
E|--------------------------------------------------------------------5-5-5--|

E|---------------------------------------------------------------------------|
B|---------------------------------------------------------------------------|
G|--9-----------------5-----------------9-----------------7------------------|
D|--9--9-9-9-9--9-9-9-5--5-5-5-5--5-5-5-9--9-9-9-9--9-9-9-7--7-7-7-7--7-7-7--|
A|--7--7-7-7-7--7-7-7-3--3-3-3-3--3-3-3-7--7-7-7-7--7-7-7-5--5-5-5-5--5-5-5--|
E|---------------------------------------------------------------------------|

E|---------------------------------------------------------------------------|
B|---------------------------------------------------------------------------|
G|---------------------------------------------------------------------------|
D|--7-----------------7-----------------5-----------------5------------------|
A|--7--7-7-7-7--7-7-7-7--7-7-7-7--7-7-7-5--5-5-5-5--5-5-5-5--5-5-5-5--5-5-5--|
E|--5--5-5-5-5--5-5-5-5--5-5-5-5--5-5-5-3--3-3-3-3--3-3-3-3--3-3-3-3--3-3-3--|

5) bridge to 6) (2:37 - 2:49)
E|------------------------------------------------------------|
B|------------------------------------------------------------|
G|------------------------------------------------------------|
D|--5--------------5---------5---------5----------8-----------|
A|--5--------------5---------5---------5----------6-----------|
E|--3--------1-1-1-3---1-1-1-3---1-1-1-3---1-1-1-------1-1-1--|
             .....     .....     .....     .....       .....

6) here are minor variations that i wont tab - repeat 4 times (2:49 - 3:32)
E|-----------------------------------------------|
B|-----------------------------------------------|
G|-----------------------------------------------|
D|--5-----5-----5---------5-----5-----5----------|
A|--5-----5-----5-----3-3-5-----5-----5-----3-3--|
E|--3-3-3-3-3-3-3-3-3-1-1-3-3-3-3-3-3-3-3-3-1-1--|
      ...   ...   ...       ...   ...   ...
E|--------------------------------------|---------|--------|
B|--------------------------------------|---------|--------|
G|--------------------------------------|---------|--------|
D|--5-----5-----5----------8------------|---------|-----5--|
A|--5-----5-----5-----3-3--6------------|---------|-----5--|
E|--3-3-3-3-3-3-3-3-3-1-1---------------|--1-1-1--|-1-1-3--|
      ...   ...   ...                      .....  | ...    |
                                     1,2,3rd time |4th time|

  Visit MetalTabs.com for more metal tablature

bottom separator

Contact Us | Privacy Policy | Disclaimer | Legal Notice
Copyright © 2001-2014 MetalTabs.com. All Rights Reserved.