top separator

Home

Forum

What's New

Submit a Tab

FAQ

Links

Contact Us

Link to Us

MetalTabs.com logo

Bands

0-9

A

B

C

D

E

F

G

H

I

J

K

L

M

N

O

P

Q

R

S

T

U

V

W

X

Y

Z

Search

What

Where
 

Thyrfing - "Digerdöden" Guitar Tab

Plain Text Version
More Thyrfing Tabs

Hits: 4321
Rated: 4.33 out of 5 (3 votes)
Updated: 2003-10-12 09:11:05

 

By:

sendpm.gif

email.gif

Important note
This tab is available online because we obtained explicit permission from Thyrfing or their label.


#----------------------------------PLEASE NOTE---------------------------------#
#This file is the author's own work and represents their interpretation of the #
#song. You may only use this file for private study, scholarship, or research. #
#Unless specified otherwise, this is NOT an official tab from the band members.#
#------------------------------------------------------------------------------#

  Visit MetalTabs.com for more metal tablature
  
                                     DIGERDÖDEN
                              (As recorded by Thyrfing
                         from the 2002 album Vansinnesvisor)
                              VERSION 1.0 - October 2002


Transcribed by Cristi Rachitovan
mail: decietful@hotmail.com
IRC:  undernet's #metal as "Stromblad"

... = palm mute         h = hammer-on
/,\ = slide             p = pull-off
a.h.= art.harmonics

I'm sure you'll figure out the timing, and the minor variations
which are vaguely represented here.

Tune to 1 whole step down (DGCFAD).


1) [intro/verse] (0:00 - 0:30)

D|----------------------|
A|----------------------|
F|----------------------|
C|----------------------|
G|--5----5-5-5-3-3-3-2--|
D|--3----3-3-3-1-1-1-0--|
         ...........
D|----------------------|
A|----------------------|
F|----------------------|
C|----------------------|
G|--5----------3-3-2----|
D|--3----------1-1-0----|

D|----------------------|------------------------|
A|----------------------|------------------------|
F|----------------------|------------------------|
C|----------------------|------------------------|
G|--5----5-5-5-3-3-3-2--|-2-2-2---2-2-2---2-2-2--|
D|--3----3-3-3-1-1-1-0--|-0-0-0---0-0-0---0-0-0--|
         ...........      .....   .....   .....
D|----------------------|------------|
A|----------------------|------------|
F|----------------------|------------|
C|----------------------|------------|
G|--5----------3---2----|-2---2-2-2--|
D|--3----------1---0----|-0---0-0-0--|
                          .   .....

2) [verse] keys enter (0:30 - 0:45)

D|--------------------|
A|--------------------|
F|--------------------|
C|--------------------|
G|--5----------3-3-2--|
D|--3----------1-1-0--|

D|--------------------|
A|--------------------|
F|--------------------|
C|--------------------|
G|--5----------3---2--|
D|--3----------1---0--|


3) now for the awesome [sliding riff] x2 (0:45 - 1:00)

D|---------------------------------------------------------
A|---------------------------------------------------------
F|---------------------------------------------------------
C|--12\9-9-9-12-12-12\9-9-9-14-14-14\9-9-9-10-10-10\9-9-9--
G|--10\7-7-7-10-10-10\7-7-7-12-12-12\7-7-7-12-12-12\7-7-7--
D|---------------------------------------------------------

----------------------------------------7--|
----------------------------------------8--|
----------------------------------------9--| <- dont play the Dm chord on repeat
-7-7-7/9-9-9--9-9-9/7-4-4--12-11--9-----9--|
-5-5-5/7-7-7--7-7-7/5-2-2--10--9--7--7--7--|
-------------------------------------------|
                                     .
2) [verse] part again w/ variations (1:00 - 1:15)
3) [sliding riff] x2 (1:15 - 1:35)


4) the heavy [pre-chorus] (1:36 - 2:58)

D|----------------------|
A|----------------------|
F|----------------------|
C|-----2----------------|
G|-----2----------------|
D|-/-\-0----------------|

D|----------------------------|
A|----------------------------|
F|----------------------------|
C|--9-9-9-9-9-9-9-8--8--8-9\--|
G|--7-7-7-7-7-7-7-6--6--6-7\--|
D|----------------------------|

D|----------------------------------------------------------|
A|----------------------------------------------------------|
F|----------------------------------------------------------|
C|------------------------------------9-9-9-9-9-9-8-8-8-9\--| Guitar 1
G|--2-2---2-2---2-2---2-2---2-2---2-2-7-7-7-7-7-7-6-6-6-7\--|
D|--0-0---0-0---0-0---0-0---0-0---0-0-----------------------|
 |  ...   ...   ...   ...   ...   ...                       |
D|----------------------------------------------------------|
A|---------------------------------------------------7------|
F|--------------------------------------------7-9-10---9\---|
C|-------------------------------------7-9-10----------a.h.-| Guitar 2
G|--2-2---2-2---2-2---2-2---2-2---2-2-----------------------|
D|--0-0---0-0---0-0---0-0---0-0---0-0-----------------------|
    ...   ...   ...   ...   ...   ...
D|-------------------------------------------------|
A|-------------------------------------------------|
F|-------------------------------------------------|
C|------------------------------------5-5-2-5-7-9--|
G|--2-2---2-2---2-2---2-2---2-2---2-2-3-3-0-3-5-7--| <- ignore the D5 on repeat
D|--0-0---0-0---0-0---0-0---0-0---0-0--------------|  |  and play the chorus
    ...   ...   ...   ...   ...   ...     ...   |-----|


5) [chorus]x2 (2:11 - 2:34)

D|---------------------------------------------|
A|---------------------------------------------|
F|---------------------------------------------|
C|--9---7---2-4-7-9---7---9---7---2-4-7-9---5--|
G|--7---5---0-2-5-7---5---7---5---0-2-5-7---3--|
D|---------------------------------------------|
            .....                 .....

4) [pre-chorus]      (2:35 - 2:57)
5) [chorus]x2        (2:57 - 3:31)
2) [verse]           (3:32 - 3:48)
3) [sliding riff]x2  (3:48 - 4:02)
2) [verse]           (4:02 - 4:17)
3) [sliding riff]x2  (4:18 - 4:48)

...and that would be it, enjoy this outstanding song.

  Visit MetalTabs.com for more metal tablature

bottom separator

Contact Us | Privacy Policy | Disclaimer | Legal Notice
Copyright © 2001-2014 MetalTabs.com. All Rights Reserved.