top separator

Home

Forum

What's New

Submit a Tab

FAQ

Links

Contact Us

Link to Us

MuSpy.com

MetalTabs.com logo

Bands

0-9

A

B

C

D

E

F

G

H

I

J

K

L

M

N

O

P

Q

R

S

T

U

V

W

X

Y

Z

Search

What

Where
 

Thyrfing - "Ångestens Högborg" Guitar Tab

Plain Text Version
More Thyrfing Tabs

Hits: 3075
Updated: 2003-10-12 09:10:00

 

By:

sendpm.gif

email.gif

Important note
This tab is available online because we obtained explicit permission from Thyrfing or their label.


#----------------------------------PLEASE NOTE---------------------------------#
#This file is the author's own work and represents their interpretation of the #
#song. You may only use this file for private study, scholarship, or research. #
#Unless specified otherwise, this is NOT an official tab from the band members.#
#------------------------------------------------------------------------------#

  Visit MetalTabs.com for more metal tablature
  
                                 ANGESTENS HÖGBORG
                              (As recorded by Thyrfing
                        from the 2002 album Vansinnesvisor)
                           VERSION 1.0 - January 25th 2003


Transcribed by Cristi Rachitovan
mail: decietful@hotmail.com
IRC:  undernet's #metal as "Stromblad"

... = palm mute    x = mute the note after you strike it
/,\ = slide        d = down, u = up

Here's how to play this great piece of music, i think it's really accurate.
First tune to 1 whole step down (DGCFAD).
The timing is slightly represented here.


Keyed fiddle starts.
RIFF A1 (0:07 - 0:14)
D|------------------------------------------------------------|
A|------------------------------------------------------------|
F|--5---------------------------------------------------------|
C|--5----6-3--------6--6-6-5--5-5-/8--8-8-6--6----------------|
G|--3----6-3--------6--6-6-5--5-5-/8--8-8-6--6----------------|
D|-------4-1--------4--4-4-3--3-3-/6--6-6-4--4----------------|
           x

RIFF A2 -2x (0:15 - 0:44)
    d  d u d  d u  etc.
D|------------------------------------------------------------|
A|------------------------------------------------------------|
F|--5------5--------------------------------------------------|
C|--5--5-5-5--5-5-3------3------/6------5---------------------|
G|--3--3-3-3--3-3-3--3-3-3--3-3-/6--6-6-5--5-5----------------|
D|----------------1--1-1-1--1-1-/4--4-4-3--3-3-3-3-3-3--------|
         x      x      x      x       x      x .......
D|------------------------------------------------------------|
A|------------------------------------------------------------|
F|--5------5--------------------------------------------------|
C|--5--5-5-5--5-5-3------3------/6------5--------/8------6----|
G|--3--3-3-3--3-3-3--3-3-3--3-3-/6--6-6-5--5-5---/8--8-8-6----|
D|----------------1--1-1-1--1-1-/4--4-4-3--3-3---/6--6-6-4----|
         x      x      x      x       x      x         x

RIFF B (0:45 - 1:12)
D|------------------------------------------|
A|------------------------------------------|
F|--5-----------------6----8----10\---------|
C|--5--------6--------6----8----10\---------|
G|--3--------6--------4----6----8-\---------|
D|--3--------4------------------------------|

D|------------------------------------------|
A|------------------------------------------|
F|------------------------------------------|
C|--3---------3---------3-------------------|
G|--3---------3---------3---------3-3-3-----|
D|--1-111-1-1-1-111-1-1-1-111-1-1-1-1-1-----|
      ... . .   ... . .   ... . . . . .
D|-------------------------------------------|
A|-------------------------------------------|
F|--5-----------------6----8----10\----------|
C|--5--------6--------6----8----10\------5---|
G|--3--------6--------4----6----8-\------3---|
D|--3--------4---------------------------3---|
                                         x

RIFF A2 -2x (1:12 - 1:45)
RIFF B (1:45 - 2:13)

RIFF C -2x (2:13 - 2:43)
D|---------------------------------------------------|
A|---------------------------------------------------|
F|---------------------------------------------------|
C|--5-----------5-----------6-----------6------------|
G|--3-333-3-3-3-3-333-3-3-3-4-444-4-4-4-4-444-4-4-4--|
D|---------------------------------------------------|
      ... . . .   ... . . .   ... . . .   ... . . .
cont.
D|-------------------------------------------------|
A|-------------------------------------------------|
F|-------------------------------------------------|
C|--8-8/101010101010\8-8-8/101010101010\-8---------|
G|--6-6/-8-8-8-8-8-8\6-6-6/-8-8-8-8-8-8\-6---------|
D|-------------------------------------------------|

D|---------------------------------------------------|
A|---------------------------------------------------|
F|---------------------------------------------------|
C|--5-----------5-----------6-----------6------------|
G|--3-333-3-3-3-3-333-3-3-3-4-444-4-4-4-4-444-4-4-4--|
D|---------------------------------------------------|
      ... . . .   ... . . .   ... . . .   ... . . .
cont.
D|-----------------------------------------|--------|
A|-----------------------------------------|--------|
F|-----------------------------------------|--------|
C|--3--3--3--3--3--3--8/101010101010\------|10\-----|
G|--3--3--3--3--3--3--6/-8-8-8-8-8-8\------|-8\-----|
D|--1--1--1--1--1--1-----------------------|--------|
    x  x  x  x  x  x                       |__|
                             only first time'

RIFF D -2x (2:57 - 3:09) - clean guitar, with the noises
D|------------------------------------------------------------------|
A|------------------------------------------------------------------|
F|---------8---------7---------5-----------8---------7---------5----|
C|-------5---------5---------5-----------5---------5---------5------|
G|-----6---------5---------3-----------6---------5---------3--------|
D|------------------------------------------------------------------|


RIFF E -2x (3:09 - 3:59)
D|------------------------------------------------------------------|
A|------------------------------------------------------------------|
F|---------5---------3---------5-----------5---------3---------5----| G1
C|---------5---------3---------5-----------5---------3---------5----|
G|--3-3-3--3--1-1-1--1--3-3-3--3----3-3-3--3--1-1-1--1--3-3-3--3----|
D|--3-3-3--3--1-1-1--1--3-3-3--3----3-3-3--3--1-1-1--1--3-3-3--3----|
 |  .....     .....     .....       .....     .....     .....       |
D|------------------------------------------------------------------|
A|------------------------------------------------------------------|
F|---------8---------7---------5-----------8---------7---------5----| G2
C|-------5---------5---------5-----------5---------5---------5------| clean
G|-----6---------5---------3-----------6---------5---------3--------|
D|------------------------------------------------------------------|

D|-----------------------------------------------------------------------------|
A|-----------------------------------------------------------------------------|
F|-----------------------------------------------------------------------------|
C|----------8-----------7--5---------------------------------------------------|
G|-66666666-6--55555555-5--3-333-333-333-333-333-333-333-336---3---5-----------|
D|---------------------------------------------------------4---1---3-3-3-3-3-3-|
    ........    ........      ... ... ... ... ... ... ... ..         |.......|
                                                         only on 2nd repeat'
RIFF B (3:59 - 4:25)
RIFF A2 -2x (4:29 - 4:58)
RIFF B (4:58 - 5:25)
RIFF C -2x (5:25 - 5:56)
RIFF E -2x (5:58 - 6:46)

RIFF F  (6:46 - 7:03)
D|------------------------------------------------|
A|------------------------------------------------|
F|----5-------------------------------------------|
C|--5-5-------------------------------------------|
G|--5-3-------------------------------------------|
D|--3-3-------------------------------------------|

  Visit MetalTabs.com for more metal tablature

bottom separator

Contact Us | Privacy Policy | Disclaimer | Legal Notice
Copyright © 2001-2014 MetalTabs.com. All Rights Reserved.