top separator

Home

Forum

What's New

Submit a Tab

FAQ

Links

Contact Us

Link to Us

MuSpy.com

MetalTabs.com logo

Bands

0-9

A

B

C

D

E

F

G

H

I

J

K

L

M

N

O

P

Q

R

S

T

U

V

W

X

Y

Z

Search

What

Where
 

Benediction - "This Graveyard Earth" Guitar Tab

Plain Text Version
More Benediction Tabs

Hits: 3047
Updated: 2003-10-12 09:09:19

 

By:

sendpm.gif

email.gif

Important note
This tab is available online because we obtained explicit permission from Benediction or their label.


#----------------------------------PLEASE NOTE---------------------------------#
#This file is the author's own work and represents their interpretation of the #
#song. You may only use this file for private study, scholarship, or research. #
#Unless specified otherwise, this is NOT an official tab from the band members.#
#------------------------------------------------------------------------------#

  Visit MetalTabs.com for more metal tablature
  
                               THIS GRAVEYARD EARTH
                           (As recorded by Benediction
                        from the 2001 album Organised Chaos)
                            VERSION 1.0 - august 2003


Transcribed by Cristi Rachitovan
mail: decietful@hotmail.com
IRC:  undernet's #metal as "Stromblad"

... = palm mute         h = hammer-on
~   = vibrato           p = pull-off


Here's the tab for my favorite song off Organised Chaos.

Tune down a whole step to D.

G II is optional, you can play it with your buddy to give it a fuller sound
since its one octave lower.


RIFF A1 (0:00 - 0:35)

D|------------------------------------------------------------|
A|------------------------------------------------------------|
F|------------------------------------------------------------| G I
C|------------------------------------------------------------|
G|--15------14------15-17-15------14------15-15-15------14----|
D|---0-0000--0-0000--0--0--0-0000--0-0000--0--0--0-0000--0----|
 |     ....    ....          ....    ....          ....       |
D|------------------------------------------------------------|
A|------------------------------------------------------------|
F|------------------------------------------------------------| G II
C|------------------------------------------------------------|
G|---3-------2-------3--5--3-------2-------3--3--3-------2----|
D|---0-0000--0-0000--0--0--0-0000--0-0000--0--0--0-0000--0----|
       ....    ....          ....    ....          ....

cont.
D|------------------------------|
A|------------------------------|
F|------------------------------| G I
C|------------------------------|
G|-------15---------------------|
D|--0000--0-00-0-1-3-4-3-1-3-0--|
 |  ....    ..                  |
D|------------------------------|
A|------------------------------|
F|------------------------------| G II
C|------------------------------|
G|--------3---------------------|
D|--0000--0-00-0-1-3-4-3-1-3-0--|
    ....    ..


RIFF A2 (0:36 - 1:03)

D|------------------------------------------|
A|------------------------------------------|
F|------------------------------------------| G I
C|------------------------------------------|
G|--15------14----------15------14----------|
D|---0-0000--0-00000000--0-0000--0-000-17~--|
 |     ....    ........    ....    ...      |
D|------------------------------------------|
A|------------------------------------------|
F|------------------------------------------| G II
C|------------------------------------------|
G|---3-------2-----------3-------2----------|
D|---0-0000--0-00000000--0-0000--0-000--5~--|
       ....    ........    ....    ...

cont.
D|------------------------------------------|
A|------------------------------------------|
F|------------------------------------------| G I
C|------------------------------------------|
G|--15------14----------3------------6------|
D|---0-0000--0-00000000-111111111111-4------|
 |     ....    ........  ...........          |
D|------------------------------------------|
A|------------------------------------------|
F|------------------------------------------| G II
C|------------------------------------------|
G|---3-------2----------3------------6------|
D|---0-0000--0-00000000-111111111111-4------|
       ....    ........  ...........


RIFF B (1:03 - 1:06)

D|-----------------------------------|
A|-----------------------------------|
F|-----------------------------------|
C|-----------------------------------|
G|--2-3-5-6-5-3-5-6-2-3-5-6-5-3-5-6--|
D|--0-1-3-4-3-1-3-4-0-1-3-4-3-1-3-4--|
    ...............................


RIFF C (1:06 - 1:21) 2x Multiple strokes per chord.

D|---------------------------------------------|
A|---------------------------------------------|
F|-----------------3---------------------------|
C|--5----2----6----3--3--5----2----6----6------|
G|--5----2----6----1--3--5----2----6----6------|
D|--3----0----4-------1--3----0----4----4------|


RIFF B 2x 2nd time dont mute the notes.
RIFF C 2x
RIFF B 4x 2nd & 4th time dont mute the notes.


RIFF D 4x (1:58 - 2:26)

D|-------------------------------------------------------------|
A|-------------------------------------------------------------|
F|-------------------------------------------------------------|
C|--------------2----------2----------------2------------------|
G|--5-5-5-5-5-5-2----3-3-3-2----5-5-5-5-5-5-2------5-4-0-2-1~--|
D|--3-3-3-3-3-3-0----1-1-1-0----3-3-3-3-3-3-0----0-------------|
    ...........      . . .      ...........      .


RIFF A1 6x
RIFF A2 4x
RIFF B 2x 2nd time dont mute the notes.
RIFF C 2x
RIFF B 2x 2nd time dont mute the notes.
RIFF C 2x
RIFF B 4x 2nd & 4th time dont mute the notes.
RIFF D 6x

  Visit MetalTabs.com for more metal tablature

bottom separator

Contact Us | Privacy Policy | Disclaimer | Legal Notice
Copyright © 2001-2014 MetalTabs.com. All Rights Reserved.