top separator

Home

Forum

What's New

Submit a Tab

FAQ

Links

Contact Us

Link to Us

MetalTabs.com logo

Bands

0-9

A

B

C

D

E

F

G

H

I

J

K

L

M

N

O

P

Q

R

S

T

U

V

W

X

Y

Z

Search

What

Where
 

Samael - "Us" Guitar Tab

Plain Text Version
More Samael Tabs

Hits: 5919
Rated: 3.00 out of 5 (2 votes)
Updated: 2003-10-12 09:08:47

 

By:

sendpm.gif

email.gif

Important note
This tab is available online because we obtained explicit permission from Samael or their label.


#----------------------------------PLEASE NOTE---------------------------------#
#This file is the author's own work and represents their interpretation of the #
#song. You may only use this file for private study, scholarship, or research. #
#Unless specified otherwise, this is NOT an official tab from the band members.#
#------------------------------------------------------------------------------#

  Visit MetalTabs.com for more metal tablature
  
                                        US
                              (As recorded by Samael
                           from the 1999 album Eternal)
                             VERSION 1.0 - august 2003


Transcribed by Cristi Rachitovan
mail: decietful@hotmail.com
IRC:  undernet's #metal as "Stromblad"

... = palm mute         h = hammer-on
/,\ = slide             p = pull-off



Tune to 1 whole step down (DGCFAD).

I only wanted to tab the catchy main riff, so here is just the basic thing.
Actually the whole song is based upon RIFF A, so use variations in the verses
like playing just the root notes etc etc.


RIFF A (0:12 - 0:30) 2x

D|-------------------------------------|
A|-------------------------------------|
F|--------------0-------0--------------|
C|------2-----2---2---4---5h7p5---5----|
G|----2---2-3-------5-----------7---6--|
D|--0----------------------------------|

D|-------------------------------------|
A|-------------------------------------|
F|--------------0-------0--------------|
C|------2-----2---2---4---5h7p5---5----|
G|----2---2-3-------5-----------7---6--|
D|--0----------------------------------|
    ...


RIFF B (0:30 - 0:47) w/ variations

D|-----------------|
A|-----------------|
F|-----------------| 8x
C|--2-2----2----2--|
G|--2-2----2----2--|
D|--0-0--x-0--0-0--|
              .


FILL A (0:47 - 0:56)

D|------------------------------------------------------------|
A|------------------------------------------------------------|
F|------------------------------------------------------------|
C|--2---------------------------------------------------------|
G|--2---------------------------------------------------------|
D|--0---------------------------------------------------------|


RIFF C (1:08 - 1:38)

D|----------------------------------------------|
A|----------------------------------------------|
F|----------------------------------------------|
C|------------------------------2-------1-------|
G|--2-3----2---------------2-3-----3-2----------|
D|--------------3-0------------------------3-0--|

D|------------------------------------------------------------|
A|-------0-------0----------------------5-----------4---------|
F|-------0-------0--------------------5---5-------4---4-------|
C|----------------------------------5-----------4-------------|
G|--2-3-----3-2----------------2-3----------3-2---------------|
D|------------------3-0----------------------------------3-0--|

Cheers.

  Visit MetalTabs.com for more metal tablature

bottom separator

Contact Us | Privacy Policy | Disclaimer | Legal Notice
Copyright © 2001-2014 MetalTabs.com. All Rights Reserved.