top separator

Home

Forum

FAQ

Contact Us

Link to Us

MetalTabs.com logo

Bands

0-9

A

B

C

D

E

F

G

H

I

J

K

L

M

N

O

P

Q

R

S

T

U

V

W

X

Y

Z

Skinless - "Enslavement" Guitar Tab

Plain Text Version
More Skinless Tabs

Hits: 4591
Rated: 3.00 out of 5 (5 votes)
Updated: 2003-10-12 08:26:53

By:

shredder


#----------------------------------PLEASE NOTE---------------------------------#
#This file is the author's own work and represents their interpretation of the #
#song. You may only use this file for private study, scholarship, or research. #
#Unless specified otherwise, this is NOT an official tab from the band members.#
#------------------------------------------------------------------------------#

  Visit MetalTabs.com for more metal tablature
  
Band: 	Skinless
Album:	Foreshadowing Our Demise
Song:	Enslavement

Copyright  Relapse Records 2001

Transcribed By:	Joe Holly
E-mail:		rivers_of_gore666@yahoo.com

.  - palm mute           /  - slide up to
\  - slide down to       ~  - vibrato
h  - hammer on           b  - Bend
p  - pull off            Suffixes for bend
t  - tap                 f  - full bend    h - half bend
ph - pinched harmonic    q  - quarter bend t - tap bend
*  - see comment         ^  - Hold bend    r release bend
x  - Stuccatto           ~  - vibrato bend
,  - slight palm mute    () - ghost note, sustained note
"  - tremolo note        <> - Trill

Tuning: B E A D G B

Riff 1
|-------------------------------|
|-------------------------------|
|-------------------------------|
|-------------------------------|
|-2-----2-----2--2-----2-----2--|
|-0-----0-----0--0-----0-----0--|
  .     .     .  .     .     .

Riff 2
guitar 1 (with chorus effect and reverb)
|-----------------------------------------------------|
|-----------------------------------------------------|
|-----------------------------------------------------|
|-----------------------------------------------------|
|-2-----3-----2--5-----3-----2-3-2--------------------|
|-----------------------------------------------------|

|-----------------------------------------------------|
|-----------------------------------------------------|
|-----------------------------------------------------|
|-4-----2---------------------------------------------|
|-------------5-----3-----2-3-2-----------<2-3>-------|
|-----------------------------------------------------|

|-----------------------------------------------------|
|-----------------------------------------------------|
|-----------------------------------------------------|
|-----------------------------------------------------|
|-2-----3-----2--5-----3-----2-3-2--------------------|
|-----------------------------------------------------|

|-----------------------------------------------------|
|-----------------------------------------------------|
|-----------------------------------------------------|
|-4-----2---------------------------------------------|
|-------------5-----3-----2-3-2---2-----2-----2--2----|
|---------------------------------0-----0-----0--0----|
                                  .     .     .

guitar 2
|-------------------------------|
|-------------------------------|
|-------------------------------|
|-------------------------------|
|-2-----2-----2--2-----2-----2--|
|-0-----0-----0--0-----0-----0--|
  .     .     .  .     .     .

Riff 3
guitar 1
|-----------------------------------------------|
|-----------------------------------------------|
|-----------------------------------------------|
|-----------------5---3---2---------------------|
|-2---2---3---5-----------------3---2---5---4---|
|-0-------------------------------------3---2---|

|-----------------------------------------------|
|-----------------------------------------------|
|-----------------------------------------------|
|-----------------5---3---2---------------------|
|-2---2---3---5-----------------3---2~--5---4---|
|-0-------------------------------------3---2---|

|-----------------------------------------------|
|-----------------------------------------------|
|-----------------------------------------------|
|-----------------5---3---2---------------------|
|-2---2---3---5-----------------3---2---5---4---|
|-0-------------------------------------3---2---|

|-------------------------------------------------------|
|-------------------------------------------------------|
|-------------------------------------------------------|
|-----------------5---3---2-----2h3p2h3-----------------|
|-2---2---3---5-------------------------2h3p2---5---4---|
|-0---------------------------------------------3---2---|

guitar 2
|-------------------------------------------------------|
|-------------------------------------------------------|
|-------------------------------------------------------|
|-------------------------------------------------------|
|-2--------------------------------------------5---4----|
|-0--------------------------------------------3---2----|

Riff 4A
|--------------------------------------------------------------|
|--------------------------------------------------------------|
|-----------------------------------------------------9/10-10--|
|-----------------------------------------------------x-----x--|
|-2---------------2---------------2---------------2---7/-8--8--|
|-0---0-0-0-0-0-0-0---0-0-0-0-0-0-0---0-0-0-0-0-0-0------------|
  .   . . . . . . .   . . . . . . .   . . . . . . .

Riff 4B
|-----------------------------------------------------|
|-----------------------------------------------------|
|--------------------------------------------9/10-10--|
|--------------9-----------------------------x-----x--|
|-2---2--2--2--7---2--2--2--2---2--2--2--2---7/-8--8--|
|-0---0--0--0------0--0--0--0---0--0--0--0------------|
      .  .  .      .  .  .      .  .  .  .

Riff 5A
|--------------------------------------------|
|--------------------------------------------|
|--------------------------------------------|
|--------------------------------------------|
|-2--2--2--2--3/4\3----2--2--2--2--7----6----|
|-0--0--0--0--1/2\1----0--0--0--0--5----4----|
  .  .  .  .           .  .  .  .

Riff 5B
|----------------------------------------------------------------|
|----------------------------------------------------------------|
|----------------------------------------------------------------|
|----------------------------------------------------------------|
|-2-----2-----2-----2-----2-----2-----2--2--2--2--2--2--2--2--2--|
|-0-----0-----0-----0-----0-----0-----0--0--0--0--0--0--0--0--0--|
                                      .  .  .  .  .  .  .  .

Riff 6A
|--------------------------------------------------|
|--------------------------------------------------|
|--------------------------------------------------|
|-4/5----10\9------4/5-----------------------------|
|-2/3-----8\7------2/3-----2--3--2--3--5--4--2--3--|
|-------0--------0---------0--1--0--1--3--2--0--1--|
        .        .         .  .  .  .  .  .  .  .

Riff 6B
|--------------------------------------------|
|--------------------------------------------|
|--------------------------------------------|
|-----------------------------------5--5--5--|
|-2----3----2----4----2----3----2---3--3--3--|
|-0----1----0----2----0----1----0------------|
  .    .    .    .    .    .    .

Riff 6A
Riff 6B

Riff 7
|-----------------------------------------------------------------------|
|-----------------------------------------------------------------------|
|-----------------------------------------------------------------------|
|---------5---------------5---------------5-----------------------------|
|-2-4-3-2-3---2-3-2-4-3-2-3---2-3-2-4-3-2-3---2-3-2-3-2---4---3---3ph-b-|
|-0-2-1-0-----0-1-0-2-1-0-----0-1-0-2-1-0-----0-1-0-1-0---2---1---------|
  . . . .     . . . . . .     . . . . . .     . . . . .   .   .

|-----------------------------------------------------------------------|
|-----------------------------------------------------------------------|
|-----------------------------------------------------------------------|
|---------5---------------5---------------5-----------------------5b----|
|-2-4-3-2-3---2-3-2-4-3-2-3---2-3-2-4-3-2-3---2-3-2-3-2---4---3---------|
|-0-2-1-0-----0-1-0-2-1-0-----0-1-0-2-1-0-----0-1-0-1-0---2---1---------|
  . . . .     . . . . . .     . . . . . .     . . . . .   .   .

Riff 3

Riff 8A
|--------------------------------------------|
|--------------------------------------------|
|--------------------------------------------|
|--------------------------------------------|
|-3--4------4--3-----2-----2-----2-----2-----|
|-2--3------3--2-----0-----0-----0-----0-----|

Riff 8B
|--------------------------------------------|
|--------------------------------------------|
|--------------------------------------------|
|--------------------------------------------|
|-3--4------4--3-----2-----2--2--2-----2--2--|
|-2--3------3--2-----0-----0--0--0-----0--0--|
                           .  .

|--------------------------------------------|
|--------------------------------------------|
|--------------------------------------------|
|--------------------------------------------|
|-3--4---4--4--3-----2-----2--2--2-----2--2--|
|-2--3---3--3--2-----0-----0--0--0-----0--0--|
                           .  .

Riff 8C
|------------------------------|
|------------------------------|
|------------------------------|
|------------------------------|
|-3--4---4--4--3---------------|
|-2--3---3--3--2---------------|

Riff 9
|-------------------------------------------------------------------|
|-------------------------------------------------------------------|
|-------------------------------------------------------------------|
|---------5---------------5---------------5---------------------7---|
|-2-4-3-2-3---2-3-2-4-3-2-3---2-3-2-4-3-2-3---2-3-2-3-2---4-3---5---|
|-0-2-1-0-----0-1-0-2-1-0-----0-1-0-2-1-0-----0-1-0-1-0---2-1-------|
  . . . .     . . . . . .     . . . . . .     . . . . .   . .

Riff 7
Riff 5A

Riff 10
|------------------------------------------------------|
|------------------------------------------------------|
|------------------------------------------------------|
|------------------------------------------------------|
|-2--2--2--2--3/4\3----2--2--2--2--7--7--6----4--4--3--|
|-0--0--0--0--1/2\1----0--0--0--0--5--5--4----2--2--1--|
  .  .  .  .           .  .  .  .

Riff 11
|----------------------------------------------------------------------|
|----------------------------------------------------------------------|
|-9----11-----12----11-----14-11--12-----9-----------------------------|
|-x-----x------x-----x------x--x---x-----x-----------------------------|
|-7-----9-----10-----9-----12--9--10-----7-----2--2--2--2--2--2--2--2--|
|----------------------------------------------0--0--0--0--0--0--0--0--|
                                               .  .  .  .  .  .  .  .

Ending (with chorus effect and reverb)
|----------------------------------------------------------------------|
|----------------------------------------------------------------------|
|----------------------------------------------------------------------|
|----------------------------------------------------------------------|
|-7"----9"----10"----9"----12"-9"-10"----7"----2--2--2--2--2--2--2--2--|
|----------------------------------------------0--0--0--0--0--0--0--0--|
                                               .  .  .  .  .  .  .  .

  Visit MetalTabs.com for more metal tablature

bottom separator

Contact Us | Privacy Policy | Disclaimer
Copyright © 2001-2014 MetalTabs.com. All Rights Reserved.