top separator

Home

Forum

What's New

Submit a Tab

FAQ

Links

Contact Us

Link to Us

MetalTabs.com logo

Bands

0-9

A

B

C

D

E

F

G

H

I

J

K

L

M

N

O

P

Q

R

S

T

U

V

W

X

Y

Z

Search

What

Where
 

Daemonarch - "Corpus hermeticum" Guitar Tab

Plain Text Version
More Daemonarch Tabs

Hits: 5285
Rated: 5.00 out of 5 (3 votes)
Updated: 2003-10-12 08:15:22

 

By:

Darkenelf

sendpm.gif

email.gif

Important note
We did our best to reach Daemonarch and ask for their permission to publish this tab. Unfortunately they did not respond to our requests or we could not find a way to contact them. This tab is available online until Daemonarch tells us to take it down.


#----------------------------------PLEASE NOTE---------------------------------#
#This file is the author's own work and represents their interpretation of the #
#song. You may only use this file for private study, scholarship, or research. #
#Unless specified otherwise, this is NOT an official tab from the band members.#
#------------------------------------------------------------------------------#

  Visit MetalTabs.com for more metal tablature
  
Band: Daemonarch
Album: Hermeticum
Song: Corpus Hermeticum
Tabbed by: Martijn Wietsma (Darkenelf)
Tab Date: 11-08-2003
Email: dalvanian@yahoo.com

Standard E Tuning

riff A
|---------------------------------------------------------|
|---------------------------------------------------------|
|---------------------------------------------------------|
|-6----------------6--------------------------------------|
|-4----7--7/9------4----7----7/9--------------------------|
|----4/5--5/7---------4/5--4/5/7--------------------------|
						(4x)
riff B (0:42)
|---------------------------------------------------------|
|---------------------------------------------------------|
|---------------------------------------------------------|
|---------------------------------------------------------|
|-22-22-22-2---22-22-22-2---22-22-22-2-2--5---------------|
|-00-00-00-0---00-00-00-0---00-00-00-0-0--3---------------|
 p.m....................................

|---------------------------------------------------------|
|---------------------------------------------------------|
|---------------------------------------------------------|
|---------------------------------------------------------|
|-------------4-5---5-4--7--------------------------------|
|-00-00-00-0--2-3---3-2--5--------------------------------|
 p.m.........

repeat riff B 3x

riff C (1:23)
|---------------------------------------------------------|
|---------------------------------------------------------|
|-------------------8--8--8-8/9-9-------------------------|
|-9--9--9-9/10-10---6--6--6-6/7-7-------------------------|
|-7--7--7-7/-8--8-----------------------------------------|
|---------------------------------------------------------|

|---------------------------------------------------------|
|---------------------------------------------------------|
|-------------------8--8--8-8/9-9-------------------------|
|-9--9--9-9/10-10---6--6--6-6/7-7------6------------------|
|-7--7--7-7/-8--8----------------------4------------------|
|---------------------------------------------------------|

riff D (1:41)
|---------------------------------------------------------|
|---------------------------------------------------------|
|---------------------------------------------------------|
|---------------------------------------------------------|
|-6/7--77--77--99--99--11-11--11-11-----------------------|
|-4/5--55--55--77--77---9--9---9--9-----------------------|
 						(4x)
riff E (2:07)
|---------------------------------------------------------|
|---------------------------------------------------------|
|-8~---------------8~-------------------------------------|
|---------------------------------------------------------|
|------6-7-9------------6-7~------------------------------|
|---------------------------------------------------------|

repeat riff B 4x

riff F (2:40)
|---------------------------------------------------------|
|---------------------------------------------------------|
|---------------------------------------------------------|
|--------7~---------6~---------6~---------6~--------------|
|---------------------------------------------------------|
|-55555------55555------44444------44444------------------|
 p.m...      .....      .....      .....	(4x)

repeat riff A 4x

repeat riff E 1x

riff G (3:26)
|---------------------------------------------------------|
|---------------------------------------------------------|
|---------------------------------------------------------|
|-66666666-----------------66666666-----------------------|
|-44444444----7--7/9-------44444444----7--7/9-------------|
|-----------4/5--5/7-----------------4/5--5/7-------------|
						(2x)
riff H (4:15)
|---------------------------------------------------------|
|---------------------------------------------------------|
|---------------------------------------------------------|
|-6----------------------6--------------------------------|
|-4----7---7/9-----------4----7---7/9---------------------|
|----4/5---5/7--------------4/5---5/7---------------------|

|---------------------------------------------------------|
|---------------------------------------------------------|
|---------------------------------------------------------|
|-6----------------------6--------------------6-----------|
|-4----7---7/9-----------4----7---7/9------9--4-----------|
|----4/5---5/7--------------4/5---5/7------7--------------|

  Visit MetalTabs.com for more metal tablature

bottom separator

Contact Us | Privacy Policy | Disclaimer | Legal Notice
Copyright © 2001-2014 MetalTabs.com. All Rights Reserved.