top separator

Home

Forum

What's New

Submit a Tab

FAQ

Links

Contact Us

Link to Us

MetalTabs.com logo

Bands

0-9

A

B

C

D

E

F

G

H

I

J

K

L

M

N

O

P

Q

R

S

T

U

V

W

X

Y

Z

Search

What

Where
 

Mithotyn - "From the frozen plains" Guitar Tab

Plain Text Version
More Mithotyn Tabs

Hits: 3615
Rated: 3.17 out of 5 (6 votes)
Updated: 2003-10-05 15:39:14

 

Important note
This tab is available online because we obtained explicit permission from Mithotyn or their label.


#----------------------------------PLEASE NOTE---------------------------------#
#This file is the author's own work and represents their interpretation of the #
#song. You may only use this file for private study, scholarship, or research. #
#Unless specified otherwise, this is NOT an official tab from the band members.#
#------------------------------------------------------------------------------#

  Visit MetalTabs.com for more metal tablature
  
Song: From the Frozen Plains
Band: Mithotyn
Tabbed By: KraMetallicA

Legend
(~) Vibratto and to Let ring.
(p) Pull-Off
(p.h) Artificial Harmonics
(pm.) Palm Mute


A Small Note:  Yes, I know Mithotyn plays their songs 1 step down,
but this is perfectly accurate with standard tuning beleive me.
Obviously the only problem is when i make the "D" chord (more used
towards the end), it doesenst sound as low, but its the exact same note. That's
just the best alternative, but the rest is quite good. Obviously listen
to the song for timing, the amount of times to pick when it comes to the tremolo
is practically up to YOU, I just put a close estimate, and to help the
timing.  (Since its so fucking fast im not going to count each and every
time I pick the certain note.)



INTRO AND MAIN RIFF 2x=============

Guitar 1:
                               p.h
E-------------------------------------
B-------------------------------------
G--3p2~3~--3p2-3-5~~8-7-5---0-2-3~~p0-
D-------------------------3-----------
A-------------------------------------
E-------------------------------------

Guitar 2

E---------------------------------------
B---------------------------------------
G---------------------------5~~5-5----2-
D--5~~5-5-5-5~~5-5-5-5~~5-5-5~~5-5-3~-2-
A--5~~5-5-5-5~~5-5-5-5~~5-5-3~~3-3-3~-0-
E--3~~3-3-3-3~~3-3-3-3~~3-3--------1~---
pm    .....    .....    ...    ...

SECOND PART========================

Guitar 1:
                               p.h
E-------------------------------------
B-------------------------------------
G--3p2~3~--3p2-3-5~~8-7-5---0-2-3~~p0-
D-------------------------3-----------
A-------------------------------------
E-------------------------------------

Guitar 2:

E------------------------------------
B--3p1~3--3p1-3-4~~8-6-4---1-3-4~~p1-
G------------------------3-----------
D------------------------------------
A------------------------------------
E------------------------------------


VERSE 3x EACH TIME (REPEAT AFTER MAIN RIFF)================

Guitar 1 (Tremolo):

E-------------------------------------------------------------
B-------------------------------------------------------------
G-----------------------------------------------------77-55-77
D--555555555555------------------5555555555555555-8888--------
A--------------666-888-5555555555-----------------------------
E-------------------------------------------------------------

E------------------------------------------------------------------
B------------------------------------------------------------------
G------------------------------------------------------------------
D--55555555555-----------------------------------------------------
A-------------666-888-5555-33-55-66-55-33-33-55-66-55-33-888-101010
E----------------------------------------6-------------------------

Guitar 2 (Tremolo):

E-----------------------------------------------------------------
B-----------------------------------------------------------------
G----7777-55-7777--------------555555--777-555-777-8888-777-55-777
D--55------------8888-7777-8888------55---------------------------
A-----------------------------------------------------------------
E-----------------------------------------------------------------

E---------------------------------------------------------------------------
B-----------------------------------------------------------------888-101010
G----7777-55-7777--------------55555-88888-77-55----55-77-88-77-55----------
D--55------------8888-7777-8888-----------------8888------------------------
A---------------------------------------------------------------------------
E---------------------------------------------------------------------------


MAIN RIFF (REPEAT 2x)======================================

Guitar 1:
                               p.h
E-------------------------------------
B-------------------------------------
G--3p2~3~--3p2-3-5~~8-7-5---0-2-3~~p0-
D-------------------------3-----------
A-------------------------------------
E-------------------------------------

Guitar 2

E---------------------------------------
B---------------------------------------
G---------------------------5~~5-5----2-
D--5~~5-5-5-5~~5-5-5-5~~5-5-5~~5-5-3~-2-
A--5~~5-5-5-5~~5-5-5-5~~5-5-3~~3-3-3~-0-
E--3~~3-3-3-3~~3-3-3-3~~3-3--------1~---
pm    .....    .....    ...    ...


Repeat 2x then:


Guitar 1:
                               p.h
E-------------------------------------
B-------------------------------------
G--3p2~3~--3p2-3-5~~8-7-5---0-2-3~~p0-
D-------------------------3-----------
A-------------------------------------
E-------------------------------------

Guitar 2:

E------------------------------------
B--3p1~3--3p1-3-4~~8-6-4---1-3-4~~p1-
G------------------------3-----------
D------------------------------------
A------------------------------------
E------------------------------------


INTERLUDE AFTER BASS PART=====================================

Both Guitars (Tremolo) 2x:

E--------------------------------------------------------------------------
B--------------------------------------------------------------------------
G--33333333-222-00000-2222222-3333333-7777777-8-8-8-8-8-8-8--10101010101010
D--55555555-333-11111-3333333-5555555-8888888-10101010101010-12121212121212
A--------------------------------------------------------------------------
E--------------------------------------------------------------------------

Then immediately after second time:

Guitar 1 (Tremolo):
(This is supposed to be constant till the end of the riff, yet Guitar 2 changes.)

E-------------------------------------------------------------------------------------
B-------------------------------------------------------------------------------------
G-----------------5555555-7777777-8888888-12121212121212-10101010101010-8888888-777777
D--5555555-8888888--------------------------------------------------------------------
A-------------------------------------------------------------------------------------
E-------------------------------------------------------------------------------------

E---------------------------------------
B---------------------------------------
G--5555555------------------------------
D---------8888888-7777777-88888888888888
A---------------------------------------
E---------------------------------------

Guitar 2 (Tremolo):
(First time)

E-------------------------------------------------------------------------------------------------
B-------------------------------------------------------------------------------------------------
G--------------------------555555555555555555555555-----------------------------------------------
D--55555555555555555555555-555555555555555555555555-5555555555555555555555-33333333333333333333333
A--55555555555555555555555-333333333333333333333333-5555555555555555555555-33333333333333333333333
E--33333333333333333333333--------------------------3333333333333333333333-11111111111111111111111


Guitar 2 (Tremolo):
(Second time)

E--------------------------------------------------------------------------------------------
B--------------------------------------------------------------------------------------------
G--7777777-12121212121212-10101010101010-8888888-10-8-10101010-88-77-55-77-88-7777777-5555555
D--------------------------------------------------------------------------------------------
A--------------------------------------------------------------------------------------------
E--------------------------------------------------------------------------------------------

E----------------------------------
B----------------------------------
G-------------------------7777-5555
D--8888888-7777777-8888888---------
A----------------------------------
E----------------------------------

Guitar 2 (Tremolo):
(Third time) P.s. The "111111" are eleven's (11-11-11-10-10-10)

E--------------------------------------------------------------------------------------------------------------------
B---------------------------------------------------------------------------------------------------------11111101010
G-----------------------------------------------------------------777-555---555-888-777-555-777-101010-888-----------
D--888-777-555-777-888-777-555-777-888-777-555-777-888-777-555-777-------888-----------------------------------------
A--------------------------------------------------------------------------------------------------------------------
E--------------------------------------------------------------------------------------------------------------------

E-------------------------
B-------------------------
G--/12~~-/12~~-/12~~-/12~~
D-------------------------
A-------------------------
E-------------------------


GUITARS AND KEYBOARD PART (Repeat 4x)===================

Guitar 1 (Tremolo):

E-----------------------------------------------------------------------------------------------------
B--------------------------------------------8--------------------------------------------------------
G--------------------77----55-88-77-88-55-88---8-------------------33-55----77-1010-77----------------
D--55-88-77-88-55-88----88-----------------------33-77-55-77-33-77-------77------------1010-88-77h8p77
A-----------------------------------------------------------------------------------------------------
E-----------------------------------------------------------------------------------------------------

Guitar 2 (Tremolo)

E-----------------------------------------------------------------------------------------------------
B-----------------------------------------------------------------------------------------------------
G--------------------------555555555555555555555------------------------------------------------------
D--55555555555555555555555-555555555555555555555-33333333333333333333333-77777777777777777777777777777
A--55555555555555555555555-333333333333333333333-33333333333333333333333-55555555555555555555555555555
E--33333333333333333333333-----------------------11111111111111111111111-55555555555555555555555555555


VERSE===============

Guitar 1 (Tremolo):

E-------------------------------------------------------------
B-------------------------------------------------------------
G-----------------------------------------------------77-55-77
D--555555555555------------------5555555555555555-8888--------
A--------------666-888-5555555555-----------------------------
E-------------------------------------------------------------

E------------------------------------------------------------------
B------------------------------------------------------------------
G------------------------------------------------------------------
D--55555555555-----------------------------------------------------
A-------------666-888-5555-33-55-66-55-33-33-55-66-55-33-888-101010
E----------------------------------------6-------------------------

Guitar 2 (Tremolo):

E-----------------------------------------------------------------
B-----------------------------------------------------------------
G----7777-55-7777--------------555555--777-555-777-8888-777-55-777
D--55------------8888-7777-8888------55---------------------------
A-----------------------------------------------------------------
E-----------------------------------------------------------------

E---------------------------------------------------------------------------
B-----------------------------------------------------------------888-101010
G----7777-55-7777--------------55555-88888-77-55----55-77-88-77-55----------
D--55------------8888-7777-8888-----------------8888------------------------
A---------------------------------------------------------------------------
E---------------------------------------------------------------------------


OUTRO===============

Repeat 2x:

Guitar 1:

E-------------------------------------------------
B-------------------------------------------------
G--0-2-3~~-0-2-3-5-3~~-0-2-3~~---0-2~-3-5-2h3p2p-0
D------------------------------3------------------
A-------------------------------------------------
E-------------------------------------------------

Guitar 2:

E-------------------------------------------------
B-------------------------------------------------
G-------------------------------------------------
D--5~----5~----------5~------3~-------------------
A--5~----5~----------5~------3~-------------------
E--3~----3~----------3~------1~-------------------


Then 6x (Only Guitar 2 changes):

Guitar 1 (Slight p.h. in all notes):

E-------------------------------------------------
B-------------------------------------------------
G--0-2-3~~---0-2-3-2~~-0-2-3~~---0-2~-3-5-2h3p2p-0
D----------3-------------------3------------------
A-------------------------------------------------
E-------------------------------------------------

Guitar 2 (First and Second):

E-------------------------------------------------
B-------------------------------------------------
G-------------------------------------------------
D--5~----5~----------7~------3~-------------------
A--5~----5~----------5~------3~-------------------
E--3~----3~----------5~------1~-------------------

Guitar 2 (Third and Fourth):

E--------------------------------------------------------------------
B--------------------------------------------------------------------
G--------------------------------------------------------------------
D--5-----------5--------------------5-------------3------------------
A--5-----------5--------------------5-------------3------------------
E--3-3-3-3-333-3-3-3-3-333-333-333--3-3-3-3-333---1-1-1-1-111-111-111
pm   .........   .................    .........     .................

Guitar 2 (Fifth and Sixth):


E--------------------------------------------------------------------
B--------------------------------------------------------------------
G--------------------------------------------------------------------
D--5-----------5--------------------7-------------3------------------
A--5-----------5--------------------5-------------3------------------
E--3-3-3-3-333-3-3-3-3-333-333-333--5-5-5-5-555---1-1-1-1-111-111-111
pm   .........   .................    .........     .................


REPEAT 4x===========================================


Guitar 1 (Tremolo):

E-----------------------------------------------------------------------------------------------------
B--------------------------------------------8--------------------------------------------------------
G--------------------77----55-88-77-88-55-88---8-------------------33-55----77-1010-77----------------
D--55-88-77-88-55-88----88-----------------------33-77-55-77-33-77-------77------------1010-88-77h8p77
A-----------------------------------------------------------------------------------------------------
E-----------------------------------------------------------------------------------------------------

Guitar 2 (Tremolo)

E-----------------------------------------------------------------------------------------------------
B-----------------------------------------------------------------------------------------------------
G--------------------------555555555555555555555------------------------------------------------------
D--55555555555555555555555-555555555555555555555-33333333333333333333333-77777777777777777777777777777
A--55555555555555555555555-333333333333333333333-33333333333333333333333-55555555555555555555555555555
E--33333333333333333333333-----------------------11111111111111111111111-55555555555555555555555555555


FINAL RIFF======================================

Both Guitars (Tremolo notes between the chords):

E------------------------------------------
B------------------------------------------
G-----------------5-7-5-----3-3-3-3-2~-12~~
D--5-5-5-5-5~-5-8-------8-7-5-5-5-5-3~-----
A--5-5-5-5-5~------------------------------
E--3-3-3-3-3~------------------------------

  Visit MetalTabs.com for more metal tablature

bottom separator

Contact Us | Privacy Policy | Disclaimer | Legal Notice
Copyright © 2001-2014 MetalTabs.com. All Rights Reserved.