top separator

Home

Forum

What's New

Submit a Tab

FAQ

Links

Contact Us

Link to Us

MetalTabs.com logo

Bands

0-9

A

B

C

D

E

F

G

H

I

J

K

L

M

N

O

P

Q

R

S

T

U

V

W

X

Y

Z

Search

What

Where
 

Orphanage - "By Time Alone" Guitar Tab

Plain Text Version
More Orphanage Tabs

Hits: 4256
Rated: 3.50 out of 5 (2 votes)
Updated: 2003-10-05 15:36:34

 

By:

Darkenelf

sendpm.gif

email.gif

Important note
We did our best to reach Orphanage and ask for their permission to publish this tab. Unfortunately they did not respond to our requests or we could not find a way to contact them. This tab is available online until Orphanage tells us to take it down.


#----------------------------------PLEASE NOTE---------------------------------#
#This file is the author's own work and represents their interpretation of the #
#song. You may only use this file for private study, scholarship, or research. #
#Unless specified otherwise, this is NOT an official tab from the band members.#
#------------------------------------------------------------------------------#

  Visit MetalTabs.com for more metal tablature
  
Band: Orphanage
Album: By Time Alone
Song: By Time Alone
Tabbed by: Martijn Wietsma (Darkenelf)
Tab Date: 10-08-2003
Email: dalvanian@yahoo.com

For more tabs from me,
goto: http://www.doomish.com/go/?r=Darkenelf

Standard E Tuning

riff A
|-----------------------------------------------------|
|-----------------------------------------------------|
|-----------------------------------------------------|
|----2-2------2-2---2---------------------------------|
|-5--2-2---5--2-2---2---5/6---------------------------|
|-3--0-0---3--0-0---0h--3/4---------------------------|
     x x      x x 				(4x)

riff B (0:13)
|-----------------------------------------------------|
|-----------------------------------------------------|
|-----------------------------------------------------|
|-------------2---------------------------2-----------|
|-4-----8-----2-----3---------4-----8-----2-----3-----|
|-2-----6-----0-----1---------2-----6-----0-----1-----|
						(1x)
riff C (0:37)
|-----------------------------------------------------|
|-----------------------------------------------------|
|-----------------------------------------------------|
|-----------------------------------------------------|
|-5-5-6-6-5-5-3-3-------------------------------------|
|-3-3-4-4-3-3-1-1-------------------------------------|
						(1x)
riff D (0:39)
|-----------------------------------------------------|
|-----------------------------------------------------|
|-----------------------------------------------------|
|-5---5---5----2-2--6---6-----------------------------|
|-5---5---5----2-2--6---6-----------------------------|
|-0h3-0h3-0h3--0-0--0h4-0h4---------------------------|
               x x 				(3x)
|-----------------------------------------------------|
|-----------------------------------------------------|
|-----------------------------------------------------|
|-5---5---5----2-2-----------2------------------------|
|-5---5---5----2-2---7-6-5-3-2-3----------------------|
|-0h3-0h3-0h3--0-0---5-4-3-1-0-1----------------------|
	       x x 				(1x)

repeat riff A 4x
repeat riff B 1x
repeat riff C 1x
repeat riff D 4x
repeat riff B 1x

riff E (2:02)
|-----------------------------------------------------|
|-----------------------------------------------------|
|-----------------------------------------------------|
|-2-2-2-22-2---2-2-2-22-2-----------------------------|
|-2-2-2-22-2---2-2-2-22-2-----------------------------|
|-0-0-0-00-0---0-0-0-00-0-----------------------------|
 p.m.......................

riff F
|-----------------------------------------------------|
|-----------------------------------------------------|
|-----------------------------------------------------|
|-2-22-2-22-2-22-2---2-22-2-22-2-22-2-----------------|
|-2-22-2-22-2-22-2---2-22-2-22-2-22-2-----------------|
|-0-00-0-00-0-00-0---0-00-0-00-0-00-0-----------------|
 p.m...................................

riff G
|-----------------------------------------------------|
|-----------------------------------------------------|
|-----------------------------------------------------|
|-222-2-222-2-22---222-2-222-2-22---------------------|
|-222-2-222-2-22---222-2-222-2-22---------------------|
|-000-0-000-0-00---000-0-000-0-00---------------------|
 p.m...............................

repeat riff B 1x
repeat riff E 1x
repeat riff F 1x
repeat riff G 1x
repeat riff A 4x
repeat riff C 1x
repeat riff D 4x (till end of song)

  Visit MetalTabs.com for more metal tablature

bottom separator

Contact Us | Privacy Policy | Disclaimer | Legal Notice
Copyright © 2001-2014 MetalTabs.com. All Rights Reserved.