#----------------------------------PLEASE NOTE---------------------------------#
#This file is the author's own work and represents their interpretation of the #
#song. You may only use this file for private study, scholarship, or research. #
#Unless specified otherwise, this is NOT an official tab from the band members.#
#------------------------------------------------------------------------------#

  Visit MetalTabs.com for more metal tablature
  
Artist: IMMORTAL
Album: At The Heart Of Winter
Song: Tragedies Blows At Horizon

Transcribed by Franciszek Rzesko
Based on the original tab by:
parisc97@erols.com, Nakhtal Frost (steinzo@hotmail.com)
for suggestions or corrections contact me: saintek@poczta.fm

a.h.  - artificial harmonic
P.M.   Palm Mute
\     - slide down
/     - slide up
h     - hammer on
p     - pull off
()    - ghost note
x     - pick slides
Standard tuning


Riff 1
e |-----------------|-----------------|-----------------|----------------|
B |-----------------|-----------------|-----------------|----------------|
G |-----------------|-----------------|-5---(5)---------|-3---(3)--------|
D |-2--------2------|-2--------2------|-5---(5)---------|-3---(3)--------|
A |-2--------2------|-2--------2------|-3---(3)---------|-1---(1)--------|
E |---0-0-0----0-0-0|---0-0-0----0-0-0|------------0-0-0|-----------0-0-0|

e |-----------------|-----------------|-----------------|----------------|
B |-----------------|-----------------|-----------------|----------------|
G |-----------------|-----------------|-5---(5)---------|----------------|
D |-2--------2------|-2--------2------|-5---(5)---------|-5---(5)---(5)--|
A |-2--------2------|-2--------2------|-3---(3)---------|-5---(5)---(5)--|
E |---0-0-0----0-0-0|---0-0-0----0-0-0|-----------0-0-0-|-3---(3)---(3)--|

e |-----------------|-----------------|-----------------|----------------|
B |-----------------|-----------------|-----------------|----------------|
G |-----------------|-----------------|-5---(5)---------|----------------|
D |-2--------2------|-2--------2------|-5---(5)---------|-3---(3)--------|
A |-2--------2------|-2--------2------|-3---(3)---------|-3---(3)--------|
E |---0-0-0----0-0-0|---0-0-0----0-0-0|------------0-0-0|-1---(1)---0-0-0|

e |-----------------|-----------------|-----------------|----------------|
B |-----------------|-----------------|-----------------|----------------|
G |-----------------|-----------------|-5---(5)---------|----------------|
D |-2--------2------|-2--------2------|-5---(5)---------|-5-5-4-----5----|
A |-2--------2------|-2--------2------|-3---(3)---------|-5-3---5-----5--|
E |---0-0-0----0-0-0|---0-0-0----0-0-0|------------0-0-0|-3-------3-----3|


Riff 2 (play once)
e |-------------|-------------|-------------|-------------|
B |-------------|-------------|-------------|-------------|
G |-------------|-------------|-------------|-------------|
D |-----6h7p6---|-----4h5p4---|-----2h3p2---|-3p2---2-----|
A |---7-------7-|---5-------5-|---3-------3-|-----3---3p2-|
E |-7-----------|-5-----------|-3-----------|-------------|
P.M.------------------------------------------------------|

                                                    a.h.
e |-------------|-------------|-------------|-------------|
B |-------------|-------------|-------------|-------------|
G |-------------|-------------|-------------|-------------|
D |-----6h7p6---|-----4h5p4---|-----2h3p2---|-3p2---------|
A |---7-------7-|---5-------5-|---3-------3-|-----3-------|
E |-7-----------|-5-----------|-3-----------|-------4-----|
P.M------------------------------------------------|


e |-------------|-------------|-------------|-------------|
B |-------------|-------------|-------------|-------------|
G |-------------|-------------|-------------|-------------|
D |-----6h7p6---|-----4h5p4---|-----2h3p2---|-3p2---2-----|
A |---7-------7-|---5-------5-|---3-------3-|-----3---3p2-|
E |-7-----------|-5-----------|-3-----------|-------------|
P.M.------------------------------------------------------|

                                                    a.h.
e |-------------|-------------|-------------|-------------|
B |-------------|-------------|-------------|-------------|
G |-------------|-------------|-------------|-------------|
D |-----6h7p6---|-----4h5p4---|-----2h3p2---|-3p2---------|
A |---7-------7-|---5-------5-|---3-------3-|-----3-------|
E |-7-----------|-5-----------|-3-----------|-------2-----|
P.M------------------------------------------------|


Riff 1 x1
Riff 2 x1
Riff 1 x1


Riff 3 (play 2 times)
e |-------------|-------------|-------------|-------------|
B |-------------|-------------|-------------|-------------|
G |-------------|-------------|-------------|-------------|
D |-9-----4-----|-9999--5-----|-9-----4-----|-2-----3-2---|
A |-7-----2-----|-7777--3-----|-7-----2-----|---5-3-----5-|
E |-------------|-------------|-------------|-------------|

e |-------------|-------------|-------------|-------------|
B |-------------|-------------|-------------|-------------|
G |-------------|-------------|-------------|-------------|
D |-9-----4-----|-9999--5-----|-9-----4-----|-10--101010--|
A |-7-----2-----|-7777--3-----|-7-----2-----|--8---8-8-8--|
E |-------------|-------------|-------------|-------------|


Riff 4 (play 2 times)
e |---------|---------|---------|---------|
B |---------|---------|---------|---------|
G |---------|---------|---------|---------|
D |-----999-|-----999-|---------|7777-7777|
A |-222-777-|-222-777-|5555-5555|5555-5555|
E |-000-----|-000-----|3333-3333|5555-5555|

e |---------|---------|---------|---------|
B |---------|---------|---------|---------|
G |---------|---------|---------|---------|
D |-----999-|-----999-|---------|---------|
A |-222-777-|-222-777-|5555-3333|2222-2222|
E |-000-----|-000-----|3333-3333|2222-2222|


Riff 3 x2
Riff 4 x4


Riff 5(clean) (play 2 times)
e |------------|--------------|------------------------|----------------|
B |------------|--------------|------------------------|----------------|
G |------------|--------------|------------------------|-----------7----|
D |-2-2--2--2--|-9-9---9---9--|-12-12-----12-----12----|-10-10---10-10-9|
A |-2--22-22-22|-7--77--77--77|-10---1010---1010---1010|-8----88-------7|
E |-0----------|-0------------|--0---------------------|-0--------------|

e |------------|--------------|------------------------|----------------|
B |------------|--------------|------------------------|----------------|
G |------------|--------------|--7-7-----7------7------|-----------7----|
D |-2-2--2--2--|-9-9---9---9--|--5---5-5---5-5----5-5--|-10-10---10-10-9|
A |-2--22-22-22|-7--77--77--77|------------------------|-8----88-------7|
E |-0----------|-0------------|------------------------|-0--------------|


Riff 6 (clean) (play 2 times)
e |--------------------------|--------------------------|
B |--------------------------|--------------------------|
G |-0------------------------|-0------------------------|
D |-2--2--2--2--2--2--2--2---|-2--2--2--2--2--2--2--2---|
A |-2---2--2--2--2--2--2--2--|-2---2--2--2--2--2--2--2--|
E |-0----0--0--0--0--0--0-0-|-0----0--0--0--0--0--0--0-|

e |--------------------------|-0-----------0--0--0--0---|
B |-1------------------------|-1------------1--1--1--1--|
G |-2------------------------|-2-------------2--2--2--2-|
D |-3--3--3--3--3--3--3--3---|-3--3--3--3---------------|
A |-3---3--3--3--3--3--3--3--|-3---3--3--3--------------|
E |-1----1--1--1--1--1--1--1-|-1----1--1--1-------------|


Riff 7
 Gtr. 1 (clean)
e |-------------------------|-------------------------|
B |-------------------------|-------------------------|
G |-0-----------------------|-0-----------------------|
D |-2-2--2--2--2--2--2--2---|-2-2--2--2--2--2--2--2---|
A |-2--2--2--2--2--2--2--2--|-2--2--2--2--2--2--2--2--|
E |-0---0--0--0--0--0--0-0-|-0---0--0--0--0--0--0--0-|
                                                      |
 Gtr. 2 (distortion)                                  |
e |-------------------------|-------------------------|
B |-------------------------|-------------------------|
G |-------------------------|-------------------------|
D |-------------------------|-------------------------|
A |-------------------------|-------------------------|
E |-------------------------|-------------------------|


e |-3-----------1----------|
B |-3-----------1----------|
G |-4-----------2----------|
D |-5-5--5--5---3-3--3--3--|
A |-5--5--5--5--3--3--3--3-|
E |-3---3--3--3-1---1--1--1|
                           |
                           |
e |------------------------|
B |------------------------|
G |------------------------|
D |------------------x\----|
A |------------------x\----|
E |------------------x\----|


Riff 8                    a.h.
e |--------------|--------------|--------------|--------------|
B |--------------|--------------|--------------|--------------|
G |--------------|--------------|--------------|--------------|
D |-2------------|-3------------|-2------------|-3-/7-77-6-66-|
A |-2------------|-3------3-----|-2------------|-3-/7-77-6-66-|
E |-0----------0-|-1----------0-|-0----------0-|-1-/5-55-4-44-|

                          a.h.
e |--------------|--------------|--------------|--------------|
B |--------------|--------------|--------------|--------------|
G |--------------|--------------|--------------|--------------|
D |-2------------|-3------------|-2------------|-5--55---3-33-|
A |-2------------|-3------3-----|-2------------|-5--55---3-33-|
E |-0----------0-|-1----------0-|-0----------0-|-3--33---1-11-|

Riff 1 x1
Riff 2 x1
Riff 1 x1


Riff 9 (play 2 times)
    _3_ _3_ _3_       _3_ _3_ __3__ __3__
e |-----------------|---------------------|
B |-----------------|---------------------|
G |-----------------|---------------------|
D |-9--10---9---9-7-|-9--10---9h10p9-7/9\7|
A |-7---8---7---7-5-|-7---8---7h-8p7-5/7\5|
E |--00--00--00-----|--00--00-------------|

    _3_ _3_ _3_       _3_ _3_ ___3__
e |-----------------|---------------------|
B |-----------------|---------------------|
G |-----------------|---------------------|
D |-9--10---9---9-7-|-9--10---9h10p9-9-9-|
A |-7---8---7---7-5-|-7---8---7h-8p7--7-7-|
E |--00--00--00-----|--00--00-------------|


Riff 10
    _3_ _3_ _3_ _3_   ___3__ __3__ __3__ ___3__
e |-----------------|---------------------------|
B |-----------------|---------------------------|
G |-----------------|---------------------------|
D |-9---9---9---9---|-9-10-9-7-9-7---7----------|
A |-7---7---7---7---|--------------10-10-9-10-9-|
E |--00--00--00-00-|---------------------------|

    _3_ _3_ _3_ _3_   ___3__ __3__ __3__ a.h.
e |-----------------|---------------------------|
B |-----------------|---------------------------|
G |-----------------|---------------------------|
D |-9---9---9---9---|-9-10-9-7-9-7---7----------|
A |-7---7---7---7---|--------------10-10-9------|
E |--00--00--00--00-|---------------------------|

    _3_ _3_ _3_ _3_   ___3__ __3__ __3__ ___3__
e |-----------------|---------------------------|
B |-----------------|---------------------------|
G |-----------------|---------------------------|
D |-9---9---9---9---|-9-10-9-7-9-7---7----------|
A |-7---7---7---7---|--------------10-10-9-10-9-|
E |--00--00--00-00-|---------------------------|

    _3_ _3_ _3_ _3_   __3__ __3__ __3__ __3__
e |-----------------|---------------------------|
B |-----------------|---------------------------|
G |-----------------|---------------------------|
D |-9---9---9---9---|-9-9-9-7-7-7-5-5-5-4-4-4---|
A |-7---7---7---7---|-7-7-7-5-5-5-3-3-3-2-2-2---|
E |--00--00--00-00-|---------------------------|


Riff 9 x1
Riff 10 x2
Riff 3 x2
Riff 4 x2
Riff 3 x2
Riff 4 x2
Riff 5 x2 (clean)


Riff 11 (clean) (play 2 times)
e |--------------------------|--------------------------|
B |--------------------------|--------------------------|
G |--------------------------|--------------------------|
D |-2------------------------|-2------------------------|
A |-2------------------------|-2------------------------|
E |-0------------------------|-0------------------------|

e |-0------------------------|-0-----------0--0--0--0---|
B |-1------------------------|-1------------1--1--1--1--|
G |-2------------------------|-2-------------2--2--2--2-|
D |-3------------------------|-3------------------------|
A |-3------------------------|-3------------------------|
E |-1------------------------|-1------------------------|


Riff 6 x2
Riff 7 x1 (only clean guitar)
Riff 8 x1


Riff 12                   a.h.
e |--------------|--------------|--------------|--------------|
B |--------------|--------------|--------------|--------------|
G |--------------|--------------|--------------|--------------|
D |-2------------|-3------------|-2------------|-3-/7-77-6-66-|
A |-2------------|-3------3-----|-2------------|-3-/7-77-6-66-|
E |-0----------0-|-1----------0-|-0----------0-|-1-/5-55-4-44-|

                          a.h.
e |--------------|--------------|--------------|--------------|
B |--------------|--------------|--------------|--------------|
G |--------------|--------------|--------------|--------------|
D |-2------------|-3------------|-2------------|-5--55--3--332|
A |-2------------|-3------3-----|-2------------|-5--55--3--332|
E |-0----------0-|-1----------0-|-0----------0-|-3--33--1--110|

  Visit MetalTabs.com for more metal tablature