top separator

Home

Forum

What's New

Submit a Tab

FAQ

Links

Contact Us

Link to Us

MuSpy.com

MetalTabs.com logo

Bands

0-9

A

B

C

D

E

F

G

H

I

J

K

L

M

N

O

P

Q

R

S

T

U

V

W

X

Y

Z

Search

What

Where
 

Immortal - "At the heart of winter" Guitar Tab

Plain Text Version
More Immortal Tabs

Hits: 9963
Rated: 4.00 out of 5 (7 votes)
Updated: 2003-10-05 15:24:45

 

Important note
We did our best to reach Immortal and ask for their permission to publish this tab. Unfortunately they did not respond to our requests or we could not find a way to contact them. This tab is available online until Immortal tells us to take it down.


#----------------------------------PLEASE NOTE---------------------------------#
#This file is the author's own work and represents their interpretation of the #
#song. You may only use this file for private study, scholarship, or research. #
#Unless specified otherwise, this is NOT an official tab from the band members.#
#------------------------------------------------------------------------------#

  Visit MetalTabs.com for more metal tablature
  
Artist: IMMORTAL
Album: At The Heart Of Winter
Song: At The Heart Of Winter

Transcribed by Franciszek Rześko
Based on the original tab by parisc97@erols.com
for suggestions or corrections contact me: saintek@poczta.fm

a.h.  - artificial harmonic
P.M.   Palm Mute
b.r.   bend release
\     - slide down
/     - slide up
h     - hammer on
p     - pull off
  tremolo
~     - vibrato
()    - ghost note
x     - pick slide
Standard tuning


Keyboard Intro (wind effects)


Clean Guitar Intro 1
Gtr. 1
e |-----------------------|-4----4----4----4------|
B |-5----5----4----7-----|---5----5----5----5----|
G |o-6------6----6----4---|-----6----6----6----6--|
D |o-6--------6----6----6-|-----------------------|
A |--4--------------------|-----------------------|
E |-----------------------|-----------------------|

                                      Play 2 times
e |-----------------------|-----------------------|
B |--5----5----4----7-----|-5----5----4----4------|
G |--6------6----6----4---|---4----4----4----4---o|
D |--6--------6----6----6-|-----6----6----6----6-o|
A |--4--------------------|-----------------------|
E |-----------------------|-----------------------|

Gtr. 1
e |-----------------------|-4----4----4----4------|
B |-5----5----4----7-----|---5----5----5----5----|
G |--6------6----6----4---|-----6----6----6----6--|
D |--6--------6----6----6-|-----------------------|
A |--4--------------------|-----------------------|
E |-----------------------|-----------------------|

Gtr. 1
e |-----------------------|-----------------------|
B |--5----5----4----7-----|-5----5------4---------|
G |--6------6----6----4---|---4----4----4---------|
D |--6--------6----6----6-|-----6----6--6---------|
A |--4--------------------|-------------4---------|
E |-----------------------|-----------------------|
                                                  |
Gtr. 2                                            |
e |-----------------------|-0---------------------|
B |-----------------------|-----------------------|
G |-----------------------|-----------------------|
D |-----------------------|-----------------------|
A |-----------------------|-----------------------|
E |-----------------------|-----------------------|


Clean Guitar Intro 2 (Gtr. 1)
e |-----------------------|-----------------------|
B |-----------------------|-----------------------|
G |-----------------------|-----------------------|
D |--8----8----8----8-----|-9----9----9----9------|
A |--6------6----6----6---|---7----7----7----7----|
E |--0--------6----6----6-|-----7----7----7----7--|


e |-----------------------|-----------------------|
B |-----------------------|-----------------------|
G |-----------------------|-----------------------|
D |--8----8----8----8-----|--9----9----8----8-----|
A |----6----6----6----6---|----7----7----6----6---|
E |------6----6----6----6-|------7----7----6----6-|


e |-----------------------|-----------------------|
B |-----------------------|-----------------------|
G |-----------------------|-----------------------|
D |--8----8----8----8-----|-9----9----9----9------|
A |----6----6----6----6---|---7----7----7----7----|
E |------6----6----6----6-|-----7----7----7----7--|


e |------------------------|----------------------|
B |------------------------|----------------------|
G |------------------------|----------------------|
D |13----13----13----13----|9----9----11---9------|
A |--11----11----11----11--|--7----7----9----7----|
E |----11----11----11----11|----7----7----9----7--|


e |-----------------------|-----------------------|
B |-----------------------|-----------------------|
G |-----------------------|-----------------------|
D |--8----8----8----8-----|-9----9----9----9------|
A |----6----6----6----6---|---7----7----7----7----|
E |------6----6----6----6-|-----7----7----7----7--|


e |-----------------------|-----------------------|
B |-----------------------|-----------------------|
G |-----------------------|-----------------------|
D |--8----8----8----8-----|-9----9----8----8------|
A |----6----6----6----6---|---7----7----6----6----|
E |------6----6----6----6-|-----7----7----6----6--|


e |-----------------------|-----------------------|
B |-----------------------|-----------------------|
G |-----------------------|-----------------------|
D |--8----8----8----8-----|-9----9----9----9------|
A |----6----6----6----6---|---7----7----7----7----|
E |------6----6----6----6-|-----7----7----7----7--|


e |-----------------------|-----------------------|
B |-----------------------|-----------------------|
G |-----------------------|-----------------------|
D |--11---11---11---11----|-6---------------------|
A |----9----9----9----9---|-4---------------------|
E |------9----9----9----9-|-4---------------------|


Keyboard intro 2


Riff 1
e |--------------|--------------|--------------|----------------|
B |--------------|--------------|--------------|----------------|
G |--9-9-7-9-----|-9-9-7-9--12\-|-9-9-7-9------|-9-9-7-9-7------|
D |--9-9-7-9-----|-9-9-7-9--12\-|-9-9-7-9------|-9-9-7-7-5------|
A |--7-7-5-7-----|-7-7-5-7--10\-|-7-7-5-7------|-7-7-5----------|
E |--------------|--------------|--------------|----------------|

                                                         a.h.
e |--------------|--------------|--------------|----------------|
B |--------------|--------------|--------------|----------------|
G |--9-9-7-9-----|-9-9-7-9--12\-|-9-9-7-9------|-9-9-7-9--------|
D |--9-9-7-9-----|-9-9-7-9--12\-|-9-9-7-9------|-9-9-7-7--------|
A |--7-7-5-7-----|-7-7-5-7--10\-|-7-7-5-7------|-7-7-5----------|
E |--------------|--------------|--------------|---------7------|


Riff 2                                             Play 2 times
e |----0---------|---0----------|---0----------|--0-------------|
B |----0---------|---0----------|---0----------|--0-------------|
G |o---9-7-9-----|---9-7-9---5\-|---9-7-9------|--9-7-9----7-6-o|
D |o---9-7-9-----|---9-7-9-555\-|---9-7-9------|--9-7-9-7775-4-o|
A |----7-5-7-----|---7-5-7-333\-|---7-5-7------|--7-5-7-555-----|
E |--0-0---------|-0-0----------|-0-0----------|0-0-------------|
P.M. .             .              .             .


Riff 3
e |--------------|--------------|--------------|----------------|
B |--------------|--------------|--------------|----------------|
G |-9------------|-5------------|-9------------|----------------|
D |-9------------|-5------------|-9------------|----7----5---5--|
A |-7------------|-3------------|-7------------|-----------5----|
E |-0------------|--------------|-0------------|-5-----3--------|
                                            P.M. .     .

e |--------------|--------------|--------------|----------------|
B |--------------|--------------|--------------|----------------|
G |-9------------|-5------------|-7------------|-5-----7--------|
D |-9------------|-5------------|-7------------|-5-----7--------|
A |-7------------|-3------------|-5------------|-3-----5--------|
E |-0------------|--------------|--------------|----------------|


Riff 2 x2
Riff 3 x1
Riff 2 x2


Riff 4                                                             (end Riff 4)
e |----------------|---------------------|----------------|--------------------|
B |----------------|---------------------|----------------|--------------------|
G |----------------|---------------------|----------------|-9-----9-----7---7--|
D |-9---9---9---99-|-10---10---10---1010-|-9---9---9---99-|--1010--1010--99--99|
A |-777-777-777-77-|--777--777--777--7-7|-777-777-777-77-|--------------------|
E |----------------|---------------------|----------------|--------------------|

  Fill 1
e |----------------|---------------------|----------------|--------------------|
B |----------------|---------------------|----------------|--------------------|
G |----------------|---------------------|----------------|-------------x\-----|
D |-9---9---9---99-|-10---10---10---1010-|-9--------------|-7-----------x\-----|
A |-777-777-777-77-|--777--777--777--7-7|-7--------------|-5-----------x\-----|
E |----------------|---------------------|----------------|--------------------|

  Fill 2
e |----------------|---------------------|----------------|--------------------|
B |----------------|---------------------|----------------|--------------------|
G |----------------|---------------------|----------------|--------------------|
D |-9---9---9---99-|-10---10---10---1010-|-7---7---7---7--|--------------------|
A |-777-777-777-77-|--777--777--777--7-7|-5---5---5---5--|-8-8/10-10-10\8--8-8|
E |----------------|---------------------|----------------|-6-6/-8-8---\6--6-6|

  Fill 3
e |----------------|---------------------|----------------|--------------------|
B |----------------|---------------------|----------------|--------------------|
G |----------------|---------------------|-7---7---7---7--|--------------------|
D |-9---9---9---99-|-10---10---10---1010-|-5---5---5---5--|-7--------(7)-------|
A |-777-777-777-77-|--777--777--777--7-7|-5---5---5---5--|-5--------(5)-------|
E |----------------|---------------------|----------------|-5--------(5)-------|


1st time Riff 4 + Fill 1
2nd time Riff 4 + Fill 2
3th time Riff 4 + Fill 3


Riff 5 (Play two times)
   _3_ _3_ _3_ _3_ _3_ _3_ _3_ _3_ _3_ _3_ _3_ _3_ _3_ _3_ _3_ _3_
e |---------------|---------------|---------------|---------------|
B |---------------|---------------|---------------|---------------|
G |---------------|---------------|---------------|---------------|
D |999-999-999-999|xx7-777-777-777|555-555-555-555|xx3-333--------|
A |---------------|---------------|---------------|--------333-333|
E |---------------|---------------|---------------|---------------|

   _3_ _3_ _3_ _3_ _3_ _3_ __3___ _3_ _3_ _3_ _3_ _3_ _3_ _3_ _3_ _3_
e |---------------|------------------|---------------|---------------|
B |---------------|------------------|---------------|---------------|
G |---------------|------------------|---------------|---------------|
D |999-999-999-999|xx7-999-101010-999|777-777-777-777|xx5-555--------|
A |---------------|------------------|---------------|--------555-555|
E |---------------|------------------|---------------|---------------|


Riff 4 x1 (one guitar)
Riff 4 + Fill 2 x1
Riff 4 + Fill 3 x1
Riff 5 x2


Solo
   Gtr. 1
e |------------|------------|-------------|-------------------------------|
B |------------|------------|-------------|-------------------------------|
G |----------4-|----------4-|-------------|-5p0-5p0-4p0-4p0-2p0-2p0-0h2p0-|
D |-2~-2h4h5---|-5~-2h4h5---|-4~--(4)---4-|-------------------------------|
A |------------|------------|-------------|-------------------------------|
E |------------|------------|-------------|-------------------------------|
                                                                          |
   Gtr. 2                                                                 |
e |------------|------------|-------------|-------------------------------|
B |------------|------------|-------------|-------------------------------|
G |-9----------|-5----------|-4-----------|-7-----------------------------|
D |-9----------|-5----------|-4-----------|-7-----------------------------|
A |-7----------|-3----------|-2-----------|-5-----------------------------|
E |------------|------------|-------------|-------------------------------|

                                              __3_ __3_ _3_ __3_
e |-------------|-------------|-------------|--------------------|
B |-------------|-------------|-------------|-1200-1000-800-1000-|
G |-------------|--------4/8~-|--8p6-8--9~--|--------------------|
D |-2~----------|-2h4h5-------|-------------|--------------------|
A |-------------|-------------|-------------|--------------------|
E |-------------|-------------|-------------|--------------------|
                                                                 |
                                                                 |
e |-------------|-------------|-------------|--------------------|
B |-------------|-------------|-------------|--------------------|
G |-9-----------|-8-----------|--9----------|--9----7---5----7---|
D |-9-----------|-8-----------|--9----------|--9----5---5----7---|
A |-7-----------|-6-----------|--7----------|--7----5---3----5---|
E |-------------|-------------|-------------|--------------------|

   __3_ __3_ _3_ __3_  __3_ __3_ _3_  b.r.__3_ __3_ _3_ __3_  __3_ __3_ _3_ _3_
e |------------------|------------------|-------------------|------------------|
B |1200-1000-800-1000|-1200-1000-800-10-|-1200-1000-800-1000|-1200-1000-800-700|
G |------------------|------------------|-------------------|------------------|
D |------------------|------------------|-------------------|------------------|
A |------------------|------------------|-------------------|------------------|
E |------------------|------------------|-------------------|------------------|
                                                                               |
                                                                               |
e |------------------|------------------|-------------------|------------------|
B |------------------|------------------|-------------------|------------------|
G |-9----7---5----7--|--9----7---5---7-|--9----7---5---7--|--9----7---5--7--|
D |-9----7---3----5--|--9----7---5---7-|--9----7---5---7--|--9----7---5--7--|
A |-7----5---3----5--|--7----5---3---5-|--7----5---3---5--|--7----5---3--5--|
E |------------------|------------------|-------------------|------------------|


e |------------|------------|-------------|-------------------------------|
B |------------|------------|-------------|-------------------------------|
G |----------4-|----------4-|-------------|-5p0-5p0-4p0-4p0-2p0-2p0-0h2p0-|
D |-2~-2h4h5---|-5~-2h4h5---|-4~--(4)---4-|-------------------------------|
A |------------|------------|-------------|-------------------------------|
E |------------|------------|-------------|-------------------------------|
                                                                          |
                                                                          |
e |------------|------------|-------------|-------------------------------|
B |------------|------------|-------------|-------------------------------|
G |-9----------|-5----------|-4-----------|-7-----------------------------|
D |-9----------|-5----------|-4-----------|-7-----------------------------|
A |-7----------|-3----------|-2-----------|-5-----------------------------|
E |------------|------------|-------------|-------------------------------|


e |--------------|--------------|--------------|
B |--------------|--------------|--------------|
G |--------------|--------------|--------------|
D |-2~-----------|-1~-----------|--------------|
A |--------------|--------------|-3~-----------|
E |--------------|--------------|--------------|
                                               |
                                               |
e |--------------|--------------|--------------|
B |--------------|--------------|--------------|
G |-9------------|-8------------|-5------------|
D |-9------------|-8------------|-5------------|
A |-7------------|-6------------|-3------------|
E |--------------|--------------|--------------|


Riff 6 (Play two times)
  Gtr. 1
e |---------------------|-------------------------|
B |-8----8----8----9----|-8----9-----8-----8------|
G |---8----8----8----8--|---8----8-----8-----8----|
D |----10---10---10---10|----10----10----10----10-|
A |---------------------|-------------------------|
E |---------------------|-------------------------|
 P.M. . .  . .  . .  . .    . .  .  .  .  .  .  . |
                                                  |
  Gtr. 2       * - only 2nd time                  |
E |---------------------|-------------------------|
B |-*-------------------|-------------------------|
G |-5-------------------|(5)----------------------|
D |-5-------------------|(5)----------------------|
A |-3-------------------|(3)----------------------|
E |---------------------|-------------------------|


e |---------------------|-------------------------|
B |-6----6----6----6----|-7----6----7----6--------|
G |---6----6----6----6--|---6----6----6----6------|
D |-----8----8----8----8|-----8----8----8----8----|
A |---------------------|-------------------------|
E |---------------------|-------------------------|
 P.M. . .  . .  . .  . .    . .  . .  . .  . .    |
                                                  |
e |---------------------|-------------------------|
B |---------------------|-------------------------|
G |-3-------------------|(3)----------------------|
D |-3-------------------|(3)----------------------|
A |-1-------------------|(1)----------------------|
E |---------------------|-------------------------|


e |---------------------|-------------------------|
B |-8----8----8----9----|-8----9----8----8--------|
G |---8----8----8----8--|---8----8----8----8------|
D |----10---10---10---10|----10---10---10---10----|
A |---------------------|-------------------------|
E |---------------------|-------------------------|
 P.M. . .  . .  . .  . .    . .  . .  . .  . .    |
                                                  |
e |---------------------|-------------------------|
B |---------------------|-------------------------|
G |-5-------------------|(5)----------------------|
D |-5-------------------|(5)----------------------|
A |-3-------------------|(3)----------------------|
E |---------------------|-------------------------|

                               * - \ only 2nd time
e |---------------------|-------------------------|
B |-6----6----6----6----|10----10----10----10-----|
G |---6----6----6----6--|--10----10----10----10--*|
D |-----8----8----8----8|----12----12----12----12\|
A |---------------------|-------------------------|
E |---------------------|-------------------------|
 P.M. . .  . .  . .  . .    . .   . .   . .   . . |
                                                  |
e |---------------------|-------------------------|
B |---------------------|-------------------------|
G |-3-------------------|-7-----------------------|
D |-3-------------------|-7-----------------------|
A |-1-------------------|-5-----------------------|
E |---------------------|-------------------------|


Riff 1 x1
Riff 2 x2
Riff 3 x1
Riff 2 x2
Riff 3 x1


Ending
e |--------------|--------------|--------------|--------------|
B |--------------|--------------|--------------|--------------|
G |--9-9-7-9-----|--9--|-(9)----------|-9\-----------|
D |--9-9-7-9-----|--9--|-(9)----------|-9\-----------|
A |--7-7-5-7-----|--7--|-(7)----------|-7\-----------|
E |--------------|--------------|--------------|--------------|

  Visit MetalTabs.com for more metal tablature

bottom separator

Contact Us | Privacy Policy | Disclaimer | Legal Notice
Copyright © 2001-2014 MetalTabs.com. All Rights Reserved.