top separator

Home

Forum

FAQ

Contact Us

Link to Us

MetalTabs.com logo

Bands

0-9

A

B

C

D

E

F

G

H

I

J

K

L

M

N

O

P

Q

R

S

T

U

V

W

X

Y

Z

Sepultura - "Roots Bloody Roots" Guitar Tab

Plain Text Version
More Sepultura Tabs

Hits: 7208
Rated: 2.75 out of 5 (4 votes)
Updated: 2003-10-05 15:20:20


#----------------------------------PLEASE NOTE---------------------------------#
#This file is the author's own work and represents their interpretation of the #
#song. You may only use this file for private study, scholarship, or research. #
#Unless specified otherwise, this is NOT an official tab from the band members.#
#------------------------------------------------------------------------------#

  Visit MetalTabs.com for more metal tablature
  
Sepultura

Roots Bloody Roots

Album Roots

Transcribed by Ola xxx

Email soldmysoul2ro77@hotmail.com

Tuning:1 and a half steps down then drop D = B-F#-B-E-G#-C#
(Low to high)
Key:
PM = palm mute
h = hammer on
/ = Slide
b = bend

Intro (guitar 1)
------------------------------------------------------------
------------------------------------------------------------
------------------------------------------------------------
------------------------------------------------------------
------------------------------------------------------------
---0h1-1-0h1-1-0h1-----0h1-1-0h1-1-0h1----------------------

Intro (Guitar 2)
--------13------13----13------------------------------------
---15b17----17----17----------------------------------------
------------------------------------------------------------
------------------------------------------------------------
-----------------------------------------------------------------------
-------------------------------------------------

Chorus
------------------------------------------------------------
-----------------------------------------------------------------------
-------------------------------------------------
---0h1-1-0h1-1-0h2-----0h1-1-0h1-1-0h2----------------------
---0h1-1-0h1-1-0h2-----0h1-1-0h1-1-0h2----------------------
---0h1-1-0h1-1-0h2-----0h1-1-0h1-1-0h2----------------------
Roots bloody root

Verse
------------------------------------------------------------
------------------------------------------------------------
-----------------------------------------------------------------------
-------------------------------------------------
------------------------------------------------------------
---0h1-1-0h1-1-0h1-----0h1-1-0h1-1-0h1----------------------
I Believe In Our Fate

Interlude
------------------------------------------------------------
------------------------------------------------------------
------------------------------------------------------------
----6-5-5-4-4--0-1-2-------6-5-5-4-4--0-1-2-------------------
----6-5-5-4-4--0-1-2-------6-5-5-4-4--0-1-2-------------------
----6-5-5-4-4--0-1-2-------6-5-5-4-4--0-1-2-------------------
Watch me FREAK

-------13-----13-------13-------13--------------------------
-------15b17-------17-------17--------15--------------------
------------------------------------------------------------
---0-0------------------------------------------------------
---0-0------------------------------------------------------
---0-0------------------------------------------------------
PM - -

Rhythm behind the solo
------------------------------------------------------------
------------------------------------------------------------
------------------------------------------------------------
---------------------------------------------------------
----------------------------------------------
---1-0-0-1-00-1-0------------------------------------------


Bridge
--------------------
--------------------
--------------------
---0-0-0-0-0-0-0-0--
---0-0-0-0-0-0-0-0--
---0-0-0-0-0-0-0-0--
PM - - - - - - - -

--------------------------
--------------------------
--------------------------
--1-0--2-0--1-0--2-1--1-1-
--1-0--2-0--1-0--2-1--1-1-
--1-0--2-0--1-0--2-1--1-1-


------------------------------------------------------------
------------------------------------------------------------
------------------------------------------------------------
------------------------------------------------------------
------------------------------------------------------------here u dont have to hammer on do as u like
---0h1-1-1-1-1-0----0h1-1-1-1-1-0---------------------------
"Boom"
Outro
------------------------------------------------------------
------------------------------------------------------------
------------------------------------------------------------
--0h1-1-1-1-1-0--12/1-0h1-1-1-1-1-0--12/1-----------------
--0h1-1-1-1-1-0--12/1-0h1-1-1-1-1-0-12/1-----------------
--0h1-1-1-1-1-0--12/1-0h1-1-1-1-1-0-12/1-----------------


That's it. Please send corrections or comments.

  Visit MetalTabs.com for more metal tablature

bottom separator

Contact Us | Privacy Policy | Disclaimer
Copyright © 2001-2014 MetalTabs.com. All Rights Reserved.