top separator

Home

Forum

What's New

Submit a Tab

FAQ

Links

Contact Us

Link to Us

MetalTabs.com logo

Bands

0-9

A

B

C

D

E

F

G

H

I

J

K

L

M

N

O

P

Q

R

S

T

U

V

W

X

Y

Z

Search

What

Where
 

Hecate Enthroned - "A Monument For Eternal Martyrdom" Guitar Tab

Plain Text Version
More Hecate Enthroned Tabs

Hits: 4191
Rated: 5.00 out of 5 (4 votes)
Updated: 2003-10-05 15:17:55

 

Important note
This tab is available online because we obtained explicit permission from Hecate Enthroned or their label.


#----------------------------------PLEASE NOTE---------------------------------#
#This file is the author's own work and represents their interpretation of the #
#song. You may only use this file for private study, scholarship, or research. #
#Unless specified otherwise, this is NOT an official tab from the band members.#
#------------------------------------------------------------------------------#

  Visit MetalTabs.com for more metal tablature
  
H E C A T E    E N T H R O N E D
A MONUMENT FOR ETERNAL MARTYRDOM
from A Slaughter of Innocence,
A Requiem for the Mighty
TAB'd by: Baughb Matcuk
(rkm150@psu.edu)
http://www.personal.psu.edu/rkm150/

Tune down to D (D,G,C,F,A,D), one acoustic guitar plus keyboard.
Exelent song... I am looking for more acoustic black or death
metal songs, if you know of any, lemme know!

D|-----0-------0-------------------------0-------0-----------
A|-------0-------0-------0-----0-----------0-------0-------0-
F|-----------2---------2-----0-----0-----------2---------2---
C|---2---------------3-----2-----------2---------------3-----
G|-0-----------------------------3---0-----------------------
D|-----------------------------------------------------------

--------5-------0-------0-------------------------------------
------0---0-------0-------0-------0-----0-----------0---------
----4-----------------2---------2-----0-----0-----0---0-------
-/5-----------2---------------3-----2-----------4-------4---4-
------------0-----------------------------3---2-----------2---
--------------------------------------------------------------

-------0---------|-----0-----------------0-------------0---------
-----------------|-----0-0-----------0-----0---0---------0-------
-----0---0-------|-----2---2---2---2---2-----2-----2-------2---2-
---5-------5---5-|---2-------2---2---------------3---3-------3---
-3-----------3---|-0---------------------------------------------
-----------------|-----------------------------------------------

---0---5-------------0-----------3-----1---0h1-0-------0---------
---------0-----------0-0-----------------------------0---0-------
-----------0---0-----2---2---2-----2---------------2-------2---2-
-2---2-------2-----2-------2---2-----2---2-------3-----------3---
-----------------0-----------------------------------------------
-----------------------------------------------------------------

               2x
-----------------|---------------------------------------------------
-----0-----0-----|-----2-----2-----2-----2-----2-------1-----1-----1-
---0-----0-----0-|---5-----5-----5-----5-----5-------4-----4-----4---
-----------------|-3-----3-----3-----3-----3-----3-2-----2-----2-----
-3-----2-----3---|---------------------------------------------------
-----------------|---------------------------------------------------

             2x
-------0-------|-------0---------------0---------------0-------------
-----1---1-----|-----5---5-----------5---5-----------4---4-----------
---4-------4---|---8-------8---8---8-------8---8---7-------7---7---7-
-2-----------2-|-6-----------6---6-----------6---5-----------5---5---
---------------|-----------------------------------------------------
---------------|-----------------------------------------------------

           2x
---0---------|-------------------------------------------------------
-4---4-------|---------0---------------0---------------0-------------
-------7---7-|-----5-----5---5-----5-----5---5-----7-----7---7-----7-
---------5---|---7---7-----7-----7---7-----7-----9---9-----9-----9---
-------------|-0---------------0---------------0---------------0-----
-------------|-------------------------------------------------------

---0---------------------------------------------------------------
---------------------0-------------------------------------6-------
-----7---7------9------9----9-12------10------9h10p9---5-----5---5-
-------------10---10-----10------10------10----------3---3-----3---
-0-----0---0------------------------0-------0----------------------
-------------------------------------------------------------------

               2x
-----------------|-------------------------------------------------
-----------------|---------0---------------0---------------0-------
---4---5---7---5-|-----5-----5---5---4---4---4---4---7---7---7---7-
-5---5---5---5---|---7---7-----7---6---6-------6---5---5-------5---
-----------------|-0-----------------------------------------------
-----------------|-------------------------------------------------

               2x
-----------------|---------0---------------0---------------0-------
---------0-------|-------------------------------------------------
---6---6---6---6-|-----5-----5---5---4---4---4---4---7---7---7---7-
-4---4-------4---|---7---7-----7---6---6-------6---5---5-------5---
-----------------|-0-----------------------------------------------
-----------------|-------------------------------------------------

               2x
---------0-------|
-----------------|
---6---6---6---6-|
-4---4-------4---|
-----------------|
-----------------|

Guitar might possibly end on open low D string, it's hard to tell,
but that's definitely the note the keyboard is playing.

  Visit MetalTabs.com for more metal tablature

bottom separator

Contact Us | Privacy Policy | Disclaimer | Legal Notice
Copyright © 2001-2014 MetalTabs.com. All Rights Reserved.