top separator

Home

Forum

What's New

Submit a Tab

FAQ

Links

Contact Us

Link to Us

MuSpy.com

MetalTabs.com logo

Bands

0-9

A

B

C

D

E

F

G

H

I

J

K

L

M

N

O

P

Q

R

S

T

U

V

W

X

Y

Z

Search

What

Where
 

Summoning - "Between light and darkness" Guitar Tab

Plain Text Version
More Summoning Tabs

Hits: 5521
Rated: 4.00 out of 5 (4 votes)
Updated: 2003-10-05 15:08:47

 

By:

Darkenelf

sendpm.gif

email.gif

Important note
This tab is available online because we obtained explicit permission from Summoning or their label.


#----------------------------------PLEASE NOTE---------------------------------#
#This file is the author's own work and represents their interpretation of the #
#song. You may only use this file for private study, scholarship, or research. #
#Unless specified otherwise, this is NOT an official tab from the band members.#
#------------------------------------------------------------------------------#

  Visit MetalTabs.com for more metal tablature
  
Band: Summoning
Album: Lugburz
Song: Between Light and Darkness
Tabbed by: Martijn Wietsma (Darkenelf)
Tab Date: 05-08-2003
Email: dalvanian@yahoo.com

Standard E Tuning

Lots of these notes have to be played more then one
time. But I think these are the exact notes of the
song. Some chords parts are missing. I think you
will find that out. Have fun playing this awesome
song!!

riff A (intro)
|-------------------------------------------------|
|---------------------4-1-------------------------|
|-7--2-3--5-2----2--------------------------------|
|--------------5----------------------------------|
|-------------------------------------------------|
|-------------------------------------------------|
					(3x)
|-------------------------------------------------|
|-------------------------------------------------|
|-7--2-3--5-2----2--------------------------------|
|--------------5----------------------------------|
|-------------------------------------------------|
|-------------------------------------------------|
					(1x)
riff B
|-------------------------------------------------|
|---------------------------3---------------------|
|-2----------3h------2--5-5---5-------------------|
|---3p2----5----5---------------5-----------------|
|-------5-----------------------------------------|
|-------------------------------------------------|
					(4x)
riff C (0:50) chords
|-------------------------------------------------|
|-------------------------------------------------|
|-------------------------------------------------|
|-99999999-66666666-99999999-66666666-------------|
|-77777777-44444444-77777777-44444444-------------|
|-------------------------------------------------|
					(2x)
riff C (0:50) lead
|-------------------------------------------------|
|-------------------------------------------------|
|-------------------------------------------------|
|-9--10p9-7h9-6-----------------------------------|
|-------------------------------------------------|
|-------------------------------------------------|
					(4x)
riff B 4x
riff C (chords + lead together) 4x

riff D (1:53) (bass part...I think)
|-------------------------------------------------|
|-------------------------------------------------|
|-------------------------------------------------|
|-------------------------------------------------|
|-5-----------------------------------------------|
|---5-6--8-5--3-5---------------------------------|
					(1x)
riff A 4x

riff E (2:18)
|-------------------------------------------------|
|-------------------------------------------------|
|-------------------------------------------------|
|-------------------------------------------------|
|-------------2-2---------------------------------|
|-0-0-2-3-3-5-----5-3-5-2---0-0-2-3-3--0-0-1-1----|
					(1x)
riff F (till end of song)
|-------------------------------------------------|
|-------------------------------------------------|
|-9-9-7----------------------7--------------------|
|-------9-9--7-9-9-9-7----------------------------|
|----------------------10-9-----------------------|
|-------------------------------------------------|

|-------------------------------------------------|
|-------------------------------------------------|
|-9-9-7--------------7-8-8-8--8-7-7---------------|
|-------9-9--7-9-9-9------------------------------|
|-------------------------------------------------|
|-------------------------------------------------|
					(8x)

  Visit MetalTabs.com for more metal tablature

bottom separator

Contact Us | Privacy Policy | Disclaimer | Legal Notice
Copyright © 2001-2014 MetalTabs.com. All Rights Reserved.