top separator

Home

Forum

What's New

Submit a Tab

FAQ

Links

Contact Us

Link to Us

MetalTabs.com logo

Bands

0-9

A

B

C

D

E

F

G

H

I

J

K

L

M

N

O

P

Q

R

S

T

U

V

W

X

Y

Z

Search

What

Where
 

Mithotyn - "Embraced by Frost" Guitar Tab

Plain Text Version
More Mithotyn Tabs

Hits: 2570
Updated: 2003-10-05 15:04:37

 

Important note
This tab is available online because we obtained explicit permission from Mithotyn or their label.


#----------------------------------PLEASE NOTE---------------------------------#
#This file is the author's own work and represents their interpretation of the #
#song. You may only use this file for private study, scholarship, or research. #
#Unless specified otherwise, this is NOT an official tab from the band members.#
#------------------------------------------------------------------------------#

  Visit MetalTabs.com for more metal tablature
  
Mithotyn
In the Sign of the Ravens
Embraced by Frost

Tabbed by Steven Lewis

Tuning: D G C F A D (down one full step)

Once again if ou figure out the full song
please email it to me, at powerkraut5000@yahoo.com
thanks.

Key: h - hammer on   \ - slide down
     p - pull off    ' - palm mute
     / - slide up   TP - tremelo pick


Litsen for timing

  INTRO
  Guitar 1
|---------------------------------------------------------------|
|---------------------------------------------------------------|
|-3-5-6---10-6--8--6-5--8--6-8-10--10h11p10-8-6-5-/10-/15-10-11-|
|---------------------------------------------------------------|
|---------------------------------------------------------------|
|---------------------------------------------------------------|
|                                                               |
|                                                               |
| Guitar 2                                                      |
|---------------------------------------------------------------|
|---------------------------------------------------------------|
|------------------------------6---6-----6--6---5---------------|
|-----8---------4-------6------6---6-----6--6---5--8---------4--|
|-----8---------4-------6------4---4-----4--4---3--8---------4--|
|-----6---------2-------4------4---4-----4--4---3--6---------2--|
                                   '     '

  INTRO CONTINUED
  Guitar 1
|------------------------------------------|
|------------------------------------------|
|-13p11-10--11p10\8--10p8\6--8p6\5--6-8-10-|
|------------------------------------------|
|------------------------------------------|
|------------------------------------------|
|                                          |
|                                          |
| Guitar 2                                 |
|------------------------------------------|
|------------------------------------------|
|--------------------------------6--6-8-10-|
|-----------------6--------------6--6-8-10-|
|-----------------6--------------4--4-6-8--|
|-----------------4--------------4--4-6-8--|
                                    ' '

  Rhythym Fig. 1
  Guitars 1 & 2
|----------------------------------------------------------------------|
|----------------------------------------------------------------------|
|----------------------------------------------------------------------|
|-4-4/6-11-11/13-15-16\15-13-11-111111-10-10/11-13-11\10-7/10-15151515-|
|-4-4/6-11-11/13-15-16\15-13-11-111111-10-10/11-13-11\10-7/10-15151515-|
|-6-6/8-9--9-/11-13-14\13-11-9--9-9-9--8--8-/9--11-9-\8--5/8--13131313-|
                                ' ' '

  VERSE
  Guitars 1&2
|-------------------------|------|----------------------------------|
|-------------6666--6666--|-3x---|-4-6-7---9p7-4---6p4h6------------|
|-6666--5555--------------|-then-|----------------------------------|
|-------------------------|------|----------------------------------|
|-------------------------|------|----------------------------------|
|----1st-time-then-TP-----|------|----------------------------------|


  Guitar 1
|-------------------------------6--|
|-7p6h7---6p4-------------4-6-7----|
|-------------6--5--3-5-6----------|
|----------------------------------|
|----------------------------------|
|----------------------------------|
|                                  |
|                                  |
| Guitar 2                         |
|----------------------------------|
|----------------------------------|
|----------------------------------|
|-------------------6-6-6-6-6-6/^\-|
|-------------------6-6-6-6-6-6/^\-|
|-------------------4-4-4-4-4-4/^\-|
                      ' '   ' '

  Visit MetalTabs.com for more metal tablature

bottom separator

Contact Us | Privacy Policy | Disclaimer | Legal Notice
Copyright © 2001-2014 MetalTabs.com. All Rights Reserved.