top separator

Home

Forum

What's New

Submit a Tab

FAQ

Links

Contact Us

Link to Us

MuSpy.com

MetalTabs.com logo

Bands

0-9

A

B

C

D

E

F

G

H

I

J

K

L

M

N

O

P

Q

R

S

T

U

V

W

X

Y

Z

Search

What

Where
 

Cephalic Carnage - "Cannabism" Guitar Tab

Plain Text Version
More Cephalic Carnage Tabs

Hits: 6019
Rated: 5.00 out of 5 (4 votes)
Updated: 2003-10-05 15:03:48

 

By:

Father Death

sendpm.gif

email.gif

Important note
This tab is available online because we obtained explicit permission from Cephalic Carnage or their label.


#----------------------------------PLEASE NOTE---------------------------------#
#This file is the author's own work and represents their interpretation of the #
#song. You may only use this file for private study, scholarship, or research. #
#Unless specified otherwise, this is NOT an official tab from the band members.#
#------------------------------------------------------------------------------#

  Visit MetalTabs.com for more metal tablature
  
Band:	CEPHALIC CARNAGE
Album:	Lucid Interval
Song:	Cannabism

Transcribed by:	Chris Humeniuk
Email:	father_death_666@hotmail.com

Tuning: Standard (classical guitar)

Note - Played very sloppily, therefor the tab is
       more of an idea then anything.

Keys:
  T  - tap on body of guitar
  h  - hammer on
  p  - pull off
 / \ - slide
 ___ - palm mute
  x  - mute
  v  - sweep


   T       T       T       T    T    T       T       T       T    T    T
|-0----0--0----0--0----0--0--1-1--3-3----0--0----0--0----0--0--3-3--1-1--|
|-0----0--0----0--0----0--0--1-1--3-3----0--0----0--0----0--0--3-3--1-1--|
|-1----1--1----1--1----1--1--2-2--4-4----1--1----1--1----1--1--4-4--2-2--|
|------2-------2-------2-----3-3--5-5----2-------2-------2-----5-5--3-3--|
|------2-------2-------2-----3-3--5-5----2-------2-------2-----5-5--3-3--|
|----0-------0-------0-------1-1--3-3--0-------0-------0-------3-3--1-1--|

        T       T       T    T    T       T       T       T    T
|---0--0----0--0----0--0--1-1--3-3----0--0----0--0----0--0--3-3--1-1--|
|---0--0----0--0----0--0--1-1--3-3----0--0----0--0----0--0--3-3--1-1--|
|---1--1----1--1----1--1--2-2--4-4----1--1----1--1----1--1--4-4--2-2--|
|---2-------2-------2-----3-3--5-5----2-------2-------2-----5-5--3-3--|
|---2-------2-------2-----3-3--5-5----2-------2-------2-----5-5--3-3--|
|-0-------0-------0-------1-1--3-3--0-------0-------0-------3-3--1-1--|

|----0-0-0----------0---0-----0-----------------------0-|
|------0-0------5-----0-----0-0-5-5h6p5p3-3h5-1/3-3h5-5-|
|------1-1------4---------0-0-1-------------------------|
|-------------------------0-----------------------------|
|-------------------------------------------------------|
|-0--------0--3---1----h3-------------------------------|

|----0-0-0-0--0-------0--------2---3----------0------------0---0-----0-|
|----0-0-0-0--0-----0-----0----2---3----0-0-0-0--0-0---5-----0-------0-|
|----1-----1--1---1-------1--3-3-4-4-6--1-1-1-1--1-1---4---------0-1-1-|
|-2--2-----2----3-------2-2--4-4-5-5-7--2-2-2-2--2-2-------------0-2-2-|
|-2-------------3------------4-4-5-5-7--2-2-2----2-2-------------------|
|-0-----------3-1------------2-2-3-3-5---------------3---1----h3-------|
                                        _____    ___

|----------------------------0-----0-----------0----------0--0-0-0-|
|-5-5h6p5p3-3h5-3-3--3h5-----0-----0---5---5---0--5---5---0--0-0-0-|
|----------------------------1-----1-----4-----1----4-----1--1-1-1-|
|-------------------------2--2--2----3---------2--------2-2--2-2-2-|
|-------------------------2-----2----3---------2--------2-2--------|
|-------------------------0-----0--3-1-3-----0----3-----0----------|

                   v             v
|-2--2-2--2-2-2----3-3--3-3-3----2-2--2-2-2-3--xxx-|
|-2--2-2--2-2-2-3--3-3--3-3-3-2--2-2--2-2-2-3--xxx-|
|-3--3-3--3-3-3-4--4-4--4-4-4-3--3-3--3-3-3-4--xxx-|
|-4--4-4--4-4-4-5--5-5--5-5-5-4--4-4--4-4-4-5--xxx-|
|-4--4-4--4-4-4-5--5-5--5-5-5-4--4-4--4-4-4-5--xxx-|
|-2--2-2--2-2-2-3----3--3-3-3-2----2--2-2-2-3--xxx-|

                   v             v     v
|-2--2-2--2-2-2----3-3--3-3-3----2-----3--5-|
|-2--2-2--2-2-2-3--3-3--3-3-3-2--2--3--3--5-|
|-3--3-3--3-3-3-4--4-4--4-4-4-3--3--4--4--6-|
|-4--4-4--4-4-4-5--5-5--5-5-5-4--4--5--5--7-|
|-4--4-4--4-4-4-5--5-5--5-5-5-4--4--5--5--7-|
|-2--2-2--2-2-2-3----3--3-3-3-2-----3-----5-|

  Visit MetalTabs.com for more metal tablature

bottom separator

Contact Us | Privacy Policy | Disclaimer | Legal Notice
Copyright © 2001-2014 MetalTabs.com. All Rights Reserved.