top separator

Home

Forum

What's New

Submit a Tab

FAQ

Links

Contact Us

Link to Us

MetalTabs.com logo

Bands

0-9

A

B

C

D

E

F

G

H

I

J

K

L

M

N

O

P

Q

R

S

T

U

V

W

X

Y

Z

Search

What

Where
 

Thyrane - "Insideous Dream Of Inhuman Fear" Guitar Tab

Plain Text Version
More Thyrane Tabs

Hits: 3735
Rated: 4.50 out of 5 (2 votes)
Updated: 2003-10-05 14:57:57

 

Important note
This tab is available online because we obtained explicit permission from Thyrane or their label.


#----------------------------------PLEASE NOTE---------------------------------#
#This file is the author's own work and represents their interpretation of the #
#song. You may only use this file for private study, scholarship, or research. #
#Unless specified otherwise, this is NOT an official tab from the band members.#
#------------------------------------------------------------------------------#

  Visit MetalTabs.com for more metal tablature
  
Band: Thyrane
Album: The Spirit Of Rebellion
Track: Insidious Dream Of Inhuman Fear
Tabbed by: Matti Palenius (matti.palenius@luukku.com)
Date: 3-8-2003


Standard E tuning


Main riff:

    E5                                     B5          Bb5               B5
e:-----------------------------------------------------------------------------
B:-----------------------------------------------------------------------------
G:-----------------------------------------------------------------------------
D:-----------------------------------------9-9-9-9-9-9-8-8-8-8-8-8-8-8-8-9-9-9-
A:--------------7-7-7-9-9-9-10-10-10-9-9-9-------------------------------------
E:--0-0-0-7-7-7----------------------------------------------------------------

                        4 times
e:-----------------------------
B:-----------------------------
G:-----------------------------
D:-----------------------------
A:--7-7-7-10-10-10-6-6-6-9-9-9-
E:-----------------------------


(0:18)                           (0:35)

Riff B           20 times          <after 12 times add this

e:-----------------------      e:----------------------------
B:-----------------------      B:----------------------------
G:-----------------------      G:----------------------------
D:--9-----9--------8-----      D:----------------------------
A:--7-777-7-777--8-6-----      A:--7-7-7-7-9-9-10-10-----6-6-
E:---------------6-------      E:--------------------7-7-----


(0:46)
                pm pm pm
e:--------------------------
B:--------------------------
G:--------------------------
D:--9--8-10--9--------------
A:--7--6--8--7--2--4--5-----
E:--------------0--2--3-----

Then:

Main riff with lyrics  x8       (0:48)
Riff B                 x16      (1:18)

(1:40)

Riff C

    |.pm..|   |...pm...|   |.pm.|    4 times
e:------------------------------------------
B:------------------------------------------
G:------------------------------------------
D:----------------8------9--------8---------
A:-------------8--6------7-----8--6---------
E:---0---0-----6------0-----0--6------------


Then comes this goofy riff, goes really quiq...

(1:50)

e:------------------------------
B:------------------------------
G:------------------------------
D:---7--------6--5--------------
A:---5--7--8--4--3--4--5--(2)---
E:------5--6--------2--3--(0)---


Riff C  x4  (1:52)


And then AGAIN the goofy riff with a little different ending

(2:02)

e:------------------------------
B:------------------------------
G:------------------------------
D:---7--------6--5--------------
A:---5--7--8--4--3--4--5--6--2--let ring
E:------5--6--------2--3--4--0--


Riff D

(2:05)

                                               2 times    ("tail")
e:----------------------------------------------------|--------------|
B:----------------------------------------------------|--------------|
G:----------------------------------------------------|--------------|
D:---9--9----10--9--9-----10--9--9----10-11-10--7-10--|--9-10--7-10--|
A:---7--7-10--8--7--7--10--8--7--7-10--8--9--8--5--8--|--7--8--5--8--|
E:---------8------------8-----------8-----------------|--------------|

Then continue by playing the first part of Riff D and add the tail   x4

Riff C     x4     (2:32)
Goofy 1
Riff C     x4
Goofy 2
Riff D     x4


(3:16)
                 pm pm pm
e:------------------------
B:------------------------
G:------------------------
D:---9--9-10--9-----------
A:---7--6--8--7--2--4--5--
E:---------------0--2--3--


Main riff  x4     (3:18)


    F#5                                             C#5               C5
e:------------------------------------------------------------------------------
B:------------------------------------------------------------------------------
G:------------------------------------------------------------------------------
D:--------------------------------------------------11-11-11-11-11-11-10-10-10--
A:--(9-9-9)-------9-9-9--11-11-11-12-12-12-11-11-11-----------------------------
E:----------9-9-9---------------------------------------------------------------

                      C#5                               4 times
e:------------------------------------------------------------|
B:------------------------------------------------------------|
G:------------------------------------------------------------|
D:--10-10-10-10-10-10-11-11-11--------------------------------|
A:-----------------------------9-9-9-12-12-12-8-8-8-11-11-11--|
E:------------------------------------------------------------|



(3:47)

  coughing/laughing..
                 pm pm pm     8 times
e:------------------------
B:------------------------
G:------------------------
D:---9--9-10--9-----------
A:---7--6--8--7--2--4--5--
E:---------------0--2--3--


Thats it! Have fun.

  Visit MetalTabs.com for more metal tablature

bottom separator

Contact Us | Privacy Policy | Disclaimer | Legal Notice
Copyright © 2001-2014 MetalTabs.com. All Rights Reserved.