top separator

Home

Forum

What's New

Submit a Tab

FAQ

Links

Contact Us

Link to Us

MetalTabs.com logo

Bands

0-9

A

B

C

D

E

F

G

H

I

J

K

L

M

N

O

P

Q

R

S

T

U

V

W

X

Y

Z

Search

What

Where
 

My Dying Bride - "Raven and the Rose" Guitar Tab

Plain Text Version
More My Dying Bride Tabs

Hits: 5928
Rated: 4.00 out of 5 (2 votes)
Updated: 2003-08-17 06:15:05

 

Important note
This tab is available online because we obtained explicit permission from My Dying Bride or their label.


#----------------------------------PLEASE NOTE---------------------------------#
#This file is the author's own work and represents their interpretation of the #
#song. You may only use this file for private study, scholarship, or research. #
#Unless specified otherwise, this is NOT an official tab from the band members.#
#------------------------------------------------------------------------------#

  Visit MetalTabs.com for more metal tablature
  
MY DYING BRIDE - THE RAVEN AND THE ROSE

NOTE: I haven't written the repeats but
listen to the cd to get the right timing.

Regular Tuning (C#)
\ / = slide
... = palm mute
" = trem. pick

Intro riff:
----------------------------------||
"------"------"------"------------||
9------8------10-----9-----------o||
7------6------8------7-----------o||
7------6------8------7------------||
----------------------------------||

Riff 1

----------------------------------||
----------------------------------||
---------------------------------o|| gtr.1
2--222--22-----------------------o||
2--222--22------------------------||
0--000--00--6-7-6-3-5-4-2-1-------||
.  ...  ..  . . . . . . . .

----------------------------------||
"------"------"------"------------||
9------8------10-----9-----------o|| gtr.2
7------6------8------7-----------o||
7------6------8------7------------||
----------------------------------||

Riff 2
-----------|----------------------------||
-----------|----------------------------||
-----------|---------------------------o||
drum break-|-"-------------------------o||
-----------|-2-3-2----------------------||
-----------|-0------6-7-6-3-5-4-2-1-----||

Riff 3
------------------------------------------||
------------------------------------------||
-----------------------------------------o||
2------4---5------10--9---2------4---5---o||
2------2---3------8---7---2------2---3----||
0------2---3------8---7---0------2---3----||

Riff 4 (the "faster riff")
---------------------------------------||
---------------------------------------||
---------------------------------------|| gtr.1
"------"-------------------------------||
7------6----"-"---"------"-"---"-------||
------------8-7---7------2-3---3-------||

-------------------------------------||
-------------------------------------||
-------------------------------------|| gtr.2
9----9-8-----------------------------||
7----7-6----10-9---9------4-5---5----||
------------8--7---7------2-3---3----||

After a few times, both guitars play full chords w/ trem.pick.

Riff 5 (after the piano break)
----------------------------------------------------||
----------------------------------------------------||
----------------------------------------------------||
----------------------------------------------------||
5-/-9-999-99-9-\-7-777-/-99-9-\-5-555--5p4-\-2-4----||
----------------------------------------------------||

I haven't found out what the second guitar does yet.

-Outro.
End.

Tabbed by Tom S. van Iersel - alas_darkangel666@hotmail.com

  Visit MetalTabs.com for more metal tablature

bottom separator

Contact Us | Privacy Policy | Disclaimer | Legal Notice
Copyright © 2001-2014 MetalTabs.com. All Rights Reserved.