top separator

Home

Forum

FAQ

Contact Us

Link to Us

MetalTabs.com logo

Bands

0-9

A

B

C

D

E

F

G

H

I

J

K

L

M

N

O

P

Q

R

S

T

U

V

W

X

Y

Z

Pantera - "Walk" Guitar Tab

Plain Text Version
More Pantera Tabs

Hits: 52960
Rated: 3.37 out of 5 (149 votes)
Updated: 2001-05-30 17:21:25


#----------------------------------PLEASE NOTE---------------------------------#
#This file is the author's own work and represents their interpretation of the #
#song. You may only use this file for private study, scholarship, or research. #
#Unless specified otherwise, this is NOT an official tab from the band members.#
#------------------------------------------------------------------------------#

  Visit MetalTabs.com for more metal tablature
  
Tabbed by:
Rob Schenk(robs@violet.berkeley.edu) and Glenn Jínsson(gardox@crosswinds.net)

Walk by Pantera

Drop D tuning

Intro:
e---|-----------| 7      |------------|
B---|-----------| t      |------------|
G---|-----------| i then |------------|
D---|-----------| m      |------------|
A---|-----------| e      |------------|
D-0-|--0--b1--0-| s      |-\10/4\10//-|

Chorus:
e---------------------|
B---------------------|
G---------------------|
D-------------------8-|
A-------------------8-|
D-0---0--1b--0---0--8-|

e---------------------|
B---------------------|
G---------------------|
D-------------------6-|
A-------------------6-|
D-0---0--1b--0---0--6-|

e---------------------|
B---------------------|
G---------------------|
D-------------------6-|
A-------------------4-|
D-0---0--1b--0---0----|

e-------------------------------------|
B-------------------------------------|
G-------------------------------------| Repeat this
D-------------------------------------| last bar
A----------1-----3------4-----3-----1-| once
D-0--0--0--1--0--3--0---4--0--3--0--1-|

Vers: (the usual main riff with different endings)
e------------------| e-----------|
B------------------| B-----------|
G-6---6--6--6---6--| G--6//5--6--|
D-6---6--6--6---6--| D--6//5--6--|
A-4---4--4--4---4--| A--4//3--4--|
D-6---6--6--6---6--| D--6//5--6--|
.lashing out at you| what do I do?

pre-chorus
e----------------|
B----------------|
G-5--------------|
D-5------6----7--|
A-3------6----7--|
D-5------6----7--|
Isn't there no standard anymore?

e---|------------|
B---|------------|
G---|------------|
D---|--4--b5--4--|
A---|------------|
D-0-|--0--b1--0--|
 What it takes...

e---------------------|
B---------------------|
G---------------------|
D-6------3----2----1--|
A-6------3----2----1--|
D-6------3----2----1--|
 A lesson learned in life...

Outro:
e-------------------------------|
B-------------------------------|
G-------4//3---2-------4//3---2-|
D-------2//1---0-------2//1---0-|
A-------2//1---0-------2//1---0-|
E-0-0-0-2//1---0-0-0-0-2//1---0-|
  pm...          .....

Solo:
e-------------------------------------------------10-------|
B-b13------------b13~~~~~~10----10-------------------13p10-|
G-b12--------x---------------13----13-12p10h12-13----------|
D------------x---------------------------------------------|
A------------x---------------------------------------------|
D----------------------------------------------------------|

e----------------10----------------b12~~~~~~10--12------10--14-|
B-13-12p10h12-13----13p10--------------------------b13---------|
G-------------------------13p12p10-----------------------------|
D--------------------------------------------------------------|
A--------------------------------------------------------------|
D--------------------------------------------------------------|

e------10-----------10--14p10----10-14p14-10h14p10----10-------------|
B-b13------b13~~~~~~----------13-------------------13----13-10h13p10-|
G--------------------------------------------------------------------|
D--------------------------------------------------------------------|
A--------------------------------------------------------------------|
D--------------------------------------------------------------------|

e---------------------------------------------------------------|
B----10---------------------------------------------------------|
G-13----13p12p10----12----10h11~~~~~~~~10h11p10----10h11~~~~~~~~|
D----------------12----12-----------------------12--------------|
A---------------------------------------------------------------|
D---------------------------------------------------------------|

e---------------------------------------13--15--16--b17~~~~-----------|
B----------------------------------/15---------------------3\5//3~~~~-|
G-10h11~~~~~~10h11-b11-~~~~~~x\----------------------------3\5//3~~~~-|
D-----|--------------|-------x\---------------------------------------|
A-----|--------------|-------x\---------------------------------------|
D-----|--------------|------------------------------------------------|
      \/             \/
     bend up 2? steps and release
                                /\
e-----------6h7p6p3-------------|-------------------------|
B-------------------5h6p5p3-----|-------------------------|
G---------------------------4h5p4----b5--------b5p3~~~~~~~|
D--------------------------------------------x------------|
A-5p3--5p0---------------------------------x--------------|
D---------------------------------------------------------|

e---------------------------------------------------------------------|
B---------------------------------------------------------------------|
G-3p0h1\\\12\19p0h1\\\11p0h1\7\12p0h1\\12~~~~~~-----12-------12-------|
D----------------------------------------------7\12----12/11----12/11-|
A---------------------------------------------------------------------|
D---------------------------------------------------------------------|

e-----------------------------------8------11-------14-------17-------|
B-------------------------------3\7---7\10----10\13----13\16----16\19-|
G-12-------12----12----b12~~~~~~--------------------------------------|
D----11\12----12----12------------------------------------------------|
A---------------------------------------------------------------------|
D---------------------------------------------------------------------|

e-20----20----b20------------b20----------------|
B----19----19----------------b20------------x//-|
G-------------------------------------------x//-|
D-------------------------------------------x//-|
A-----------------------------------------------|
D-----------------------------------------------|

  Visit MetalTabs.com for more metal tablature

bottom separator

Contact Us | Privacy Policy | Disclaimer
Copyright © 2001-2014 MetalTabs.com. All Rights Reserved.