top separator

Home

Forum

What's New

Submit a Tab

FAQ

Links

Contact Us

Link to Us

MuSpy.com

MetalTabs.com logo

Bands

0-9

A

B

C

D

E

F

G

H

I

J

K

L

M

N

O

P

Q

R

S

T

U

V

W

X

Y

Z

Search

What

Where
 

Lake of Tears - "The path of the gods" Guitar Tab

Plain Text Version
More Lake of Tears Tabs

Hits: 4131
Updated: 2001-07-02 16:16:40

 

Important note
This tab is available online because we obtained explicit permission from Lake of Tears or their label.


#----------------------------------PLEASE NOTE---------------------------------#
#This file is the author's own work and represents their interpretation of the #
#song. You may only use this file for private study, scholarship, or research. #
#Unless specified otherwise, this is NOT an official tab from the band members.#
#------------------------------------------------------------------------------#

  Visit MetalTabs.com for more metal tablature
  
Taken with permission from The Crimson Book - http://www.lakeoftears.net

Author/Artist: Lake Of Tears
Title: Path Of The Gods ( Upon The Highest Mountain pt. II )
Album: Headstones
Transcribed by: Christian Kupczyk
Email: Loki.row@t-online.de

Please mail me any corrections !

Sorry ,I did not get the arp. at the beginning :-))

Main Riff
-------------------------------|--------------------------------|
-------------------------------|--------------------------------|
-------------------------------|--------------------------------|
-7-7-7-5-5-5-3-3-3-3-3-3-3-3-3-|-7-7-7-5-5-7-3-3-5-5-5-5-5-5-5-5|
-7-7-7-5-5-5-3-3-3-3-3-3-3-3-3-|-7-7-7-5-5-7-3-3-5-5-5-5-5-5-5-5|
-5-5-5-3-3-5-1-1-1-1-1-1-1-1-1-|-5-5-5-3-3-5-1-1-3-3-3-3-3-3-3-3|


hymnical interlude with piano
-----------------|-------------|---------------------------------|
-----------------|-------------|---------------------------------|
-----------------|-------------|---------------------------------|
--5---5---3------|--5---3---2--|-7-7-7-5-5-7-3-3-4-3-3-2-2-3-2-2-|
--7---5---3------|--5---3---2--|-7-7-7-5-5-7-3-3-3-3-3-2-2-3-2-2-|
--5---3---1------|--3---1---0--|-5-5-5-3-3-5-1-1-1-1-1-0-0-1-0-0-|


Interlude ( "x" means "let ring" for one beat )
-----------------------------------------|---------------------------------------|
-----------------------------------------|---------------------------------------|
-----------------------------------------|---------------------------------------|
--7-7-7---7-7-7---7-9-9-1010-101010--10--|-5-5-5---5-5-5---5-7-7-9-5-5-5-----5---|
--7-7-7---7-7-7---7-9-9-1010-101010--10--|-5-5-5---5-5-5---5-7-7-9-5-5-5-----5---|
--5-5-5-x-5-5-5-x-5-7-7-8-8--8-8-8-x-8-x-|-3-3-3-x-3-3-3-x-3-5-5-7-3-3-3-3-x-3-x-|



Arp. interlude

-----------5------------------|----------3-----------------|
-------------6-------6-6------|------------4-------4-------|
--------7------7---7----------|-------5------5-------5-----|
------7----------7------------|-----5----------5-----------|
----5-------------------------|---3--------------3---------|
--5---------------------------|-3--------------------------|

Hope you enjoy playing this great song ( although without keys ) !

Daniel, "Headstones" was the best piece of music you ever recorded, until today.

  Visit MetalTabs.com for more metal tablature

bottom separator

Contact Us | Privacy Policy | Disclaimer | Legal Notice
Copyright © 2001-2014 MetalTabs.com. All Rights Reserved.