top separator

Home

Forum

What's New

Submit a Tab

FAQ

Links

Contact Us

Link to Us

MetalTabs.com logo

Bands

0-9

A

B

C

D

E

F

G

H

I

J

K

L

M

N

O

P

Q

R

S

T

U

V

W

X

Y

Z

Search

What

Where
 

Lake of Tears - "The path of the gods" Guitar Tab

Plain Text Version
More Lake of Tears Tabs

Hits: 3715
Updated: 2001-07-02 16:16:40

 

Important note
This tab is available online because we obtained explicit permission from Lake of Tears or their label.


#----------------------------------PLEASE NOTE---------------------------------#
#This file is the author's own work and represents their interpretation of the #
#song. You may only use this file for private study, scholarship, or research. #
#Unless specified otherwise, this is NOT an official tab from the band members.#
#------------------------------------------------------------------------------#

  Visit MetalTabs.com for more metal tablature
  
Taken with permission from The Crimson Book - http://www.lakeoftears.net

THE PATH OF THE GODS
FROM : LOT
ALBUM: HEADSTONES

Intro

Could anyone figure out the intro section, it doesnīt sound too
difficult but I`m a really lousy guitar player

Rhythm I
------------------------------------------------------------------------
------------------------------------------------------------------------
------------------------------------------------------------------------
------------------------------------------------------------------------
--------------9-9-9-7-7-9-5-5-5-5-5-5-5-5-5-5---------------------------
-----------------7-7-7-5-5-7-3-3-3-3-3-3-3-3-3-3------------------------
------------------
pm-------------------------------|

Rhythm II
------------------------------------------------------------------------
------------------------------------------------------------------------
------------------------------------------------------------------------
------------------------------------------------------------------------
--------------9-9-9-7-7-9-5-5-7-7-7-7-7-7-7-7---------------------------
-----------------7-7-7-5-5-7-3-3-5-5-5-5-5-5-5-5------------------------
------------------
pm-------------------------------|

These 2 Rhythms are played throughout the song

------------------------------------------------------------------------
------------------------------------------------------------------------
------------------------------------------------------------------------
-----------9-7-7-5------5-4-4-2-----------------------------------------
--------------9-7-7-5------5-4-4-2--------------------------------------
-----------------7-5-5-3------3-2-2-0-----------------------------------
------------------

Now comes another two parts (one clean one distorted) which I couldnīt
figure out: „All the stars are yours to hold..."


Rhythm I is changed towards The end
------------------------------------------------------------------------
------------------------------------------------------------------------
------------------------------------------------------------------------
------------------------------------------------------------------------
--------------9-9-9-7-7-9-5-5-5-5-5-4-4-5-2-2---------------------------
-----------------7-7-7-5-5-7-3-3-3-3-3-2-2-3-0-0------------------------
------------------
pm-------------------------------|

Thatīs it
If you have any corrections send them to me : dietom@aol.com

  Visit MetalTabs.com for more metal tablature

bottom separator

Contact Us | Privacy Policy | Disclaimer | Legal Notice
Copyright © 2001-2014 MetalTabs.com. All Rights Reserved.