top separator

Home

Forum

What's New

Submit a Tab

FAQ

Links

Contact Us

Link to Us

MuSpy.com

MetalTabs.com logo

Bands

0-9

A

B

C

D

E

F

G

H

I

J

K

L

M

N

O

P

Q

R

S

T

U

V

W

X

Y

Z

Search

What

Where
 

Lake of Tears - "Headstones" Guitar Tab

Plain Text Version
More Lake of Tears Tabs

Hits: 6292
Rated: 4.15 out of 5 (13 votes)
Updated: 2001-07-02 16:16:40

 

Important note
This tab is available online because we obtained explicit permission from Lake of Tears or their label.


#----------------------------------PLEASE NOTE---------------------------------#
#This file is the author's own work and represents their interpretation of the #
#song. You may only use this file for private study, scholarship, or research. #
#Unless specified otherwise, this is NOT an official tab from the band members.#
#------------------------------------------------------------------------------#

  Visit MetalTabs.com for more metal tablature
  
Taken with permission from The Crimson Book - http://www.lakeoftears.net


HEADSTONES (solo) by Charalampos Tyligadas
e-mail:prokathimenos@hotmail.com

1)No rhythm given-listen to the original!
2)If some notes are wrong, it's because I transfered from paper to a notepad.
I know the second note in the second box at the last line might be 10 instead
of 12. Bear that in mind.
3)No hammer-ons, pull-offs, bending, or sliding across frets, so that you'll
listen to the original (and because I didn't note all of them in the first
place).


E-----------------|-----------------|------------------|-----------------|
B-6-8-6-8---------|-----------------|------------------|-----------------|
G---------7-5-7---|--------------10-|---10-8-7-8-------|----7------------|
D----------------7|------8-10-12----|12----------8-8-10|-10---10-8-7-----|
A--------------8--|-8-10------------|------------------|-------------8---|
E-----------------|-----------------|------------------|---------------8-|


------------------|-----------------|-----------------|------10-11-13-11-|
------------------|---10-11-13-10---|------10-11-13-10|------------------|
-------------7-10-|12-------------10|-----------------|10-12-------------|
--------8-10------|-----------------|10-12------------|------------------|
---8-10-----------|-----------------|-----------------|------------------|
10----------------|-----------------|-----------------|------------------|


10----------------|-----------------|-----------------|------------------|
---11-------------|-----------------|-----------------|------------------|
------10-10------7|-10-10-10-8-7----|-----------8-7---|------------------|
------------8-10--|--------------8--|----8-10-8-----10|-8-7-8-7----------|
------------------|----------------8|-10--------------|---------8------8-|
------------------|-----------------|-----------------|-----------8-10---|


------------------|-----------------|-----------------|------------------|
------------------|----11-----------|-----------------|------------------|
-------------10-12|-10----10-12-----|-----------------|------------------|
---8-7-10-12------|-------------8-10|-10-11-10-8------|-----8-10-12-12-13|
10----------------|-----------------|------------10-8-|10-8--------------|
------------------|-----------------|-----------------|------------------|


------------------|--------10-11-13-|11-10------------|------------------|
------------------|-----------------|------11-------11|-11-11-13-11-10---|
------------------|-----------------|---------10-12---|----------------10|
-12-10----10-12-10|---10-7----------|-----------------|------------------|
-------13---------|-8---------------|-----------------|------------------|
------------------|-----------------|-----------------|------------------|


------------------|-----------------|-----------------|------------------|
------------------|------11---------|-----------------|------------------|
---------10-12----|10-12----12-10---|-----------------|------------------|
-10-8-10-------12-|---------------12|-8-10-12-10-8-7--|---------8-7------|
------------------|-----------------|----------------8|----8-10-----10---|
------------------|-----------------|-----------------|-10---------------|

  Visit MetalTabs.com for more metal tablature

bottom separator

Contact Us | Privacy Policy | Disclaimer | Legal Notice
Copyright © 2001-2014 MetalTabs.com. All Rights Reserved.