top separator

Home

Forum

What's New

Submit a Tab

FAQ

Links

Contact Us

Link to Us

MetalTabs.com logo

Bands

0-9

A

B

C

D

E

F

G

H

I

J

K

L

M

N

O

P

Q

R

S

T

U

V

W

X

Y

Z

Search

What

Where
 

Lake of Tears - "Headstones" Guitar Tab

Plain Text Version
More Lake of Tears Tabs

Hits: 11010
Rated: 3.38 out of 5 (16 votes)
Updated: 2001-07-02 16:16:40

 

Important note
This tab is available online because we obtained explicit permission from Lake of Tears or their label.


#----------------------------------PLEASE NOTE---------------------------------#
#This file is the author's own work and represents their interpretation of the #
#song. You may only use this file for private study, scholarship, or research. #
#Unless specified otherwise, this is NOT an official tab from the band members.#
#------------------------------------------------------------------------------#

  Visit MetalTabs.com for more metal tablature
  
Taken with permission from The Crimson Book - http://www.lakeoftears.net

Lake Of Tears - Headstones (Album: Headstones)
Transscribed by Kov cs Zolt n (kovacs113@freemail.hu)
Tune down to D (DGCFAD)



Intro with bells 3 times
D|---------------------------------
A|-----5-----5-3-------3-----3-5---
F|---4-----4---------4-----4-------
C|-2---------------2---------------
G|---------------------------------
D|---------------------------------

 4th time
D|---------------------------------
A|-----5-----5-3-------3---3-------
F|---4-----4---------4---4---4-4-4-
C|-2---------------2---------------
G|---------------------------------
D|---------------------------------

After the bells 3 times
D|------------7--------------------
A|-----10--10---10-----8-------3---
F|---9---------------9-------4-----
C|-7---------------10------5-------
G|---------------------------------
D|---------------------------------

 4th time
D|-----------7---------------------
A|-----10--10--10------8---3-----3-
F|---9---------------9-------4-----
C|-7---------------10----------5---
G|---------------------------------
D|---------------------------------

D|-----------------------5-----3---
A|-1-----1-----0h1-3-------3-----3-
F|---2-----2---------4-------------
C|-----3-----3---------5-----------
G|---------------------------------
D|---------------------------------

                  drums come in
D|-----------------------5-----3---
A|-1-----1-----0---3-------3-----3-
F|---2-----2-----2---4-------------
C|-----3-----3---------5-----------
G|---------------------------------
D|---------------------------------

  verse 5 times
D|-----------7---------------------
A|-----10--10--10------8-------3---
F|---9---------------9-------4-----
C|-7---------------10------5-------
G|---------------------------------
D|---------------------------------

 6th time
D|-----------7---------------------
A|-----10--10--10------8---3-----3-
F|---9---------------9-------4-----
C|-7---------------10----------5---
G|---------------------------------
D|---------------------------------

Now I seek upon the night
D|-----------------------5-----3---
A|-1-----1-----0---3-------3-----3-
F|---2-----2-----2---4-------------
C|-----3-----3---------5-----------
G|---------------------------------
D|---------------------------------

chorus            It's totally guess
   Gm      A#m Fm
D|-5-------3---3-------------------
A|-5-------4---3-------------------
F|-5-------5---3-------------------
C|-7-------5---5-------------------
G|-7-------3---5-------------------
D|-5-----------3-------------------


If you've got the other parts, please mail me!!!

  Visit MetalTabs.com for more metal tablature

bottom separator

Contact Us | Privacy Policy | Disclaimer | Legal Notice
Copyright © 2001-2014 MetalTabs.com. All Rights Reserved.