top separator

Home

Forum

What's New

Submit a Tab

FAQ

Links

Contact Us

Link to Us

MetalTabs.com logo

Bands

0-9

A

B

C

D

E

F

G

H

I

J

K

L

M

N

O

P

Q

R

S

T

U

V

W

X

Y

Z

Search

What

Where
 

Lake of Tears - "Sweetwater" Guitar Tab

Plain Text Version
More Lake of Tears Tabs

Hits: 4572
Updated: 2001-07-02 16:16:40

 

Important note
This tab is available online because we obtained explicit permission from Lake of Tears or their label.


#----------------------------------PLEASE NOTE---------------------------------#
#This file is the author's own work and represents their interpretation of the #
#song. You may only use this file for private study, scholarship, or research. #
#Unless specified otherwise, this is NOT an official tab from the band members.#
#------------------------------------------------------------------------------#

  Visit MetalTabs.com for more metal tablature
  
Taken with permission from The Crimson Book - http://www.lakeoftears.net

Author/Artist: Lake of Tears
Title: Sweetwater
Album: Headstones
Transcribed by: Christian Kupczyk
Email: loki.row@t-online.de

Please mail me any corrections !

Intro and Verse Part A :              Verse Part B :

------------------------------------|---------------------------------|
------------------------------------|---------------------------------|
------------------------------------|---------------------------------|
--555--555-5-5--777--777-7-7-9------|-5---5---7---5---7---9---7---5---|
--555--555-5-5--777--777-7-7-9------|-5---5---7---5---7---9---7---5---|
--333--333-3-3--555--555-5-5-7------|-3---7---5---3---5---7---5---3---|
                                      "Take me where, please take me where ..."

Melody :
                     x4
-----------------------|---------------------------------|
-----------------------|---------------------------------|
-----------------------|---------------------------------|
-12-12-12-12-8-8-7-8-7-|-8-8-10-8-7-8-10-10-12-10-8-10-12|
-----------------------|---------------------------------|
-----------------------|---------------------------------|
>sliding<

Solo :

-----------------------------|--------------------------------------------|
-----------------------------|--------------------------------------------|
-----------------------------|--------7-9-10h9/12-9-10-9-7-9-7-5--7--4\5-4|
-7-/-9-12-15-18-12-10-9h10-7-|-7-9-10-------------------------------------|
-----------------------------|--------------------------------------------|
-----------------------------|--------------------------------------------|


------------------------|----------------------------|
------------------------|--------------------*-------|
-12-10-7-/-10-9-7-5--33-|-------------------brb------|
------------------------|-7--55-7--3-5-7-8-7----10-8-|
------------------------|----------------------------|
------------------------|----------------------------|
				             * bend/release bend/bend
Listen to the record for the timing !

  Visit MetalTabs.com for more metal tablature

bottom separator

Contact Us | Privacy Policy | Disclaimer | Legal Notice
Copyright © 2001-2014 MetalTabs.com. All Rights Reserved.