top separator

Home

Forum

What's New

Submit a Tab

FAQ

Links

Contact Us

Link to Us

MetalTabs.com logo

Bands

0-9

A

B

C

D

E

F

G

H

I

J

K

L

M

N

O

P

Q

R

S

T

U

V

W

X

Y

Z

Search

What

Where
 

Lake of Tears - "A foreign road" Guitar Tab

Plain Text Version
More Lake of Tears Tabs

Hits: 3887
Rated: 3.60 out of 5 (5 votes)
Updated: 2001-07-02 16:16:40

 

Important note
This tab is available online because we obtained explicit permission from Lake of Tears or their label.


#----------------------------------PLEASE NOTE---------------------------------#
#This file is the author's own work and represents their interpretation of the #
#song. You may only use this file for private study, scholarship, or research. #
#Unless specified otherwise, this is NOT an official tab from the band members.#
#------------------------------------------------------------------------------#

  Visit MetalTabs.com for more metal tablature
  
Taken with permission from The Crimson Book - http://www.lakeoftears.net

Author/Artist: Lake Of Tears
Title: A Foreign Road
Album: Headstones
Transcribed by: Christian Kupczyk
Email: Loki.row@t-online.de

Normal tuning.

Mail me for any corrections !

Intro Riff (Outro)

----------|-------------|----------|------------|
----------|-------------|----------|------------|
----------|---------7-5-|-5-7-7--7-|-5-7--------|
-5-7-7--7-|-5-7-5-7-7-5-|-5-7-7--7-|-5-7-5--5-7-|
-5-7-7--7-|-5-7-5-7-5-3-|-3-5-5--5-|-3-5-5--5-7-|
-3-5-5--5-|-3-5-3-5-----|----------|-----3--3-5-|

Verse x4      Refrain x2   melody
-------------|------------|----------|-----------|------------|------------|
-------------|------------|----------|-----------|------------|------------|
-------------|------------|----------|-----------|------------|------------|
-5------7--5-|-5-----7----|----2-----|-----------|------------|------------|
-5------7--5-|-5-----7----|-0------0-|-----0-----|-----3------|-2---0------|
-3------5--3-|-3-----5----|----------|-3-------0-|-1--------1-|----------3-|


Intro
Verse
Refrain
Verse
Refrain
Solo on refrain riff
Outro

  Visit MetalTabs.com for more metal tablature

bottom separator

Contact Us | Privacy Policy | Disclaimer | Legal Notice
Copyright © 2001-2014 MetalTabs.com. All Rights Reserved.