top separator

Home

Forum

What's New

Submit a Tab

FAQ

Links

Contact Us

Link to Us

MuSpy.com

MetalTabs.com logo

Bands

0-9

A

B

C

D

E

F

G

H

I

J

K

L

M

N

O

P

Q

R

S

T

U

V

W

X

Y

Z

Search

What

Where
 

Lake of Tears - "Raistlin and the rose" Guitar Tab

Plain Text Version
More Lake of Tears Tabs

Hits: 6060
Rated: 4.33 out of 5 (12 votes)
Updated: 2001-07-02 16:16:40

 

Important note
This tab is available online because we obtained explicit permission from Lake of Tears or their label.


#----------------------------------PLEASE NOTE---------------------------------#
#This file is the author's own work and represents their interpretation of the #
#song. You may only use this file for private study, scholarship, or research. #
#Unless specified otherwise, this is NOT an official tab from the band members.#
#------------------------------------------------------------------------------#

  Visit MetalTabs.com for more metal tablature
  
Taken with permission from The Crimson Book - http://www.lakeoftears.net

Author/Artist: Lake of Tears
Title: Raistlin And The Rose
Album: Crimson Cosmos
Transcribed by: Christian Kupczyk
Email: Loki.row@t-online.de

Please send me any corrections !

Intro
------------------------|
------------------------|
------------------------|
---------7---5----------|
-----5-----------6------|
--3---------------------|


Main Riff

------------------|-----------------|-----------------|-----------------|
------------------|-----------------|-----------------|-----------------|
------------------|-----------------|-----------------|-----------------|
--5-5-5-5-5-5-5-5-|-5-5-5-5-5-5-5-5-|-3-3-3-3-3-3-3-3-|-3-3-3-3-3-3-3-3-|
--5-5-5-5-5-5-5-5-|-5-5-5-5-5-5-5-5-|-3-3-3-3-3-3-3-3-|-3-3-3-3-3-3-3-3-|
--3-3-3-3-3-3-3-3-|-3-3-3-3-3-3-3-3-|-1-1-1-1-1-1-1-1-|-1-1-1-1-1-1-1-1-|

Melody pt.I         few times
-------------------------------|
-------------------------------|
-------------------------------|
---------7---5----7---5--------|
-----5----------6--------6-6-5-|
--3----------------------------|

Melody pt. II      few times

----------------------------|
----------------------------|
----------------------------|
-----------------------5----|
---------3---3-3-3-5-3---6-5|
-3-3-5-6--------------------|


Outro

|-----------|---------|---------|---------|
|-----------|---------|---------|---------|
|--7---8--7-|-7---8-5-|-5---7-5-|-5---7-3-|
|----5------|---5-----|---5-----|---5-----|
|-----------|---------|---------|---------|
|-----------|---------|---------|---------|

  Visit MetalTabs.com for more metal tablature

bottom separator

Contact Us | Privacy Policy | Disclaimer | Legal Notice
Copyright © 2001-2014 MetalTabs.com. All Rights Reserved.