top separator

Home

Forum

What's New

Submit a Tab

FAQ

Links

Contact Us

Link to Us

MuSpy.com

MetalTabs.com logo

Bands

0-9

A

B

C

D

E

F

G

H

I

J

K

L

M

N

O

P

Q

R

S

T

U

V

W

X

Y

Z

Search

What

Where
 

Saturnus - "Loss (In memoriam)" Guitar Tab

Plain Text Version
More Saturnus Tabs

Hits: 4052
Rated: 5.00 out of 5 (1 vote)
Updated: 2003-08-11 14:17:07

 

By:

Father Death

sendpm.gif

email.gif

Important note
This tab is available online because we obtained explicit permission from Saturnus or their label.


#----------------------------------PLEASE NOTE---------------------------------#
#This file is the author's own work and represents their interpretation of the #
#song. You may only use this file for private study, scholarship, or research. #
#Unless specified otherwise, this is NOT an official tab from the band members.#
#------------------------------------------------------------------------------#

  Visit MetalTabs.com for more metal tablature
  
Band:  SATURNUS
Album: Martyre
Song:  Loss (In Memoriam)

Transcribed by:	Chris Humeniuk
Email:  father_death_666@hotmail.com

Tuning:	1.5 steps down

Keys:
 ___ - palm mute
  p  - pull off
  h  - hammer on
 / \ - slide
 x\\ - pick scrape


INTRO:

|--------|
|--------|
|--------|
|-5-5-5--|
|-3-3-3--|
|--------|
  ___


VERSE:
(Gtr 1)
|------------------------------------------------------------|
|------------------------------------------------------------|
|----------2--2--2-------------------2--2--2-----------------|
|-2--2-2-2-2--2--2-7--7-7-7-2--2-2-2-2--2--2-7--7-7-7-5-5-5--|
|-2--2-2-2-0--0--0-5--5-5-5-2--2-2-2-0--0--0-5--5-5-5-3-3-3--|
|-0--0-0-0---------5--5-5-5-0--0-0-0---------5--5-5-5--------| 4x
                                                      ___

(Gtr 2)
|---------------------------------------------------------------------|
|---------------------------------------------------------------------|
|---------------------------------------------------------------------|
|----10p7-10p9p7-7--7-9-7--7-9----10p7-10p9p7-7--7-9-7--7-9-----------|
|-7----------------------------7----------------------------10-10-10--|
|---------------------------------------------------------------------| 2x

|---------------------------------------------------------------
|-----8-10h11p10------8-------8-10h11p10--/13--13--15-12-12-12--
|-7h9-------------7h9---7-7h9-----------------------------------
|---------------------------------------------------------------
|---------------------------------------------------------------
|---------------------------------------------------------------

 ----------------------------------------------------|
 -----8-10h11p10------8-------8------------8---------|
 -7h9-------------7h9---7-7h9---7-7h9--7h9---9-7-7-7-|
 ----------------------------------------------------|
 ----------------------------------------------------|
 ----------------------------------------------------| 2x


PRE-CHORUS:
(Gtr 1)
|-----------------------------|     |----------------------------|
|-----------------------------|     |----------------------------|
|-----------------------------|     |----------------------------|
|-----------------------------|     |----------------------------|
|-5h7-7-7-5--5-------------5--|     |-5h7-7-7-5--5---------------|
|---------------5h7-7-7-8-----| 3x  |---------------5h7-7-7-8-/\-|

(Gtr 2)
|--------------------------------------------------------------------------
|-10h12-12-12h13-10------10h12-12-12h13-10--13--10h12-12-12h13-10----------
|--------------------12--------------------------------------------12--11--
|--------------------------------------------------------------------------
|--------------------------------------------------------------------------
|--------------------------------------------------------------------------

 -------------------------------------------------------------
 ----10/12--10--10h12-12-12h13-10------10h12-12-12h13-10--13--
 -12-------------------------------12-------------------------
 -------------------------------------------------------------
 -------------------------------------------------------------
 -------------------------------------------------------------

 -----------------------/12--10------------|
 -10h12-12-12h13-10--------------13-12--10-|
 --------------------12--------------------|
 ------------------------------------------|
 ------------------------------------------|
 ------------------------------------------|


CHORUS:
(Gtr 1)
|-------------------------------------|
|-------------------------------------|
|-------------------------------5--7--|
|-0h2-2-2-2-2-7--7-7--7/9--9--9-5--7--|
|-0h2-2-2-2-2-5--5-5--7/9--9--9-3--5--|
|-----0-0-0-0-5--5-5--5/7--7--7-3--5--| 4x

(Gtr 2)
|-----------12---------------------------------------
|---10-12------13--13/15-12--------------------------
|-9-------9------------------12--11--11h12p11-9------
|------------------------------------------------12--
|----------------------------------------------------
|----------------------------------------------------

 -----------12---------------------------------------
 ---10-12------13--13/15-12--------------------------
 -9-------9------------------12--11--11h12-----------
 -------------------------------------------10--12---
 ----------------------------------------------------
 ----------------------------------------------------

 -----------12---------------------------------------
 ---10-12------13--13/15-12--------------------------
 -9-------9------------------12--11--11h12p11-9------
 ------------------------------------------------12--
 ----------------------------------------------------
 ----------------------------------------------------

 -----------12---------------------------------------|
 ---10-12------13--13/15-12--------------------------|
 -9-------9------------------12--11--11h12p11-9------|
 ----------------------------------------------------|
 ----------------------------------------------------|
 ----------------------------------------------------|


VERSE


PRE-CHORUS


CHORUS


INTERLUDE:
(Gtr 1 - acoustic)
|-3--3-3-3-3-2--2-2-2-2-0--0-0-0-0-0--0-0-0-0-
|-0--0-0-0-0-3--3-3-3-3-1--1-1-1-1-1--1-1-1-1-
|-0--0-0-0-0-2--2-2-2-2-2--2-2-2-2-2--2-2-2-2-
|-2--2-2-2-2-0--0-0-0-0-2--2-2-2-2-2--2-2-2-2-
|-2--2-2-2-2------------0--0-0-0-0-0--0-0-0-0-
|-0--0-0-0-0----------------------------------

(Gtr 2)
|------0----------0----------0---------0-------
|--------5----------5----------5---0h1---1-3/5-
|----------4----------4----------4-------------
|----------------------------------------------
|----------------------------------------------
|----------------------------------------------

(Gtr 1)
 -3--3-3-3-3-2--2-2-2-2-2--2-2-2-2-3--3-3-3-3-|
 -0--0-0-0-0-3--3-3-3-3-3--3-3-3-3-5--5-5-5-5-|
 -0--0-0-0-0-2--2-2-2-2-4--4-4-4-4-5--5-5-5-5-|
 -2--2-2-2-2-0--0-0-0-0-4--4-4-4-4-5--5-5-5-5-|
 -2--2-2-2-2------------2--2-2-2-2-3--3-3-3-3-|
 -0--0-0-0-0----------------------------------|

(Gtr 2)
 ------0----------0----------0----------0-----|
 --------5----------5----------5----------5---|
 ----------4----------4----------4----------4-|
 ---------------------------------------------|
 ---------------------------------------------|
 ---------------------------------------------|8x


CHORUS


OUTRO:
(Gtr 1)
|-------------------------------------------|
|-------------------------------------------|
|-------------7-7-7-7-7-7-------------5--7--|
|-0h2-2-2-2-2-7-7-7-7-7-7-7/9-9-9-9-9-5--7--|
|-0h2-2-2-2-2-5-5-5-5-5-5-7/9-9-9-9-9-3--5--|
|-----0-0-0-0-5-5-5-5-5-5-5/7-7-7-7-7-3--5--| 4x

(Gtr 2)
|---------------------------------------------------------
|-10-----12-----13-----12-----10-----12-----10-----12-----
|----9-9----9-9----9-9----9-9----9-9----9-9----9-9----9-9-
|---------------------------------------------------------
|---------------------------------------------------------
|---------------------------------------------------------

 ---------------------------------------------------------|
 -10-----12-----13-----12-----10--------------------------|
 ----9-9----9-9----9-9----9-9----9-9-12p9-9-11p9-9-12p9-9-|
 ---------------------------------------------------------|
 ---------------------------------------------------------|
 ---------------------------------------------------------| 2x

(Gtr 1)
|-------------------------------------|
|-------------------------------------|
|-------------7--7-7------------5--7--|
|-0h2-2-2-2-2-7--7-7--7/9--9--9-5--7--|
|-0h2-2-2-2-2-5--5-5--7/9--9--9-3--5--|
|-----0-0-0-0-5--5-5--5/7--7--7-3--5--| 4x

(Gtr 2)
|-----------------------------------------|
|---10-12--------------10-12--------------|
|-9-------9-12-9-----9-------9-12-9---11--|
|-----------------------------------------|
|-----------------------------------------|
|-----------------------------------------| 4x

(Gtr 1)
|-----------------------------------------|
|-----------------------------------------|
|-----------------------------------------|
|-2---------------------------------------|
|-2---------------------------------------|
|-0---------------------------------------|

(Gtr 2)
|-----------------------------------------|
|---10-12--------------10-12--------------|
|-9-------9-12-9-----9-------9-12-9---11--|
|-----------------------------------------|
|-----------------------------------------|
|-----------------------------------------| 3x

(Gtr 3)
|-----------------------------------------|
|-----------------------------------------|
|-9---------------------------------------|
|-----------------------------------------|
|-----------------------------------------|
|-----------------------------------------|

(Gtr 1)
|-----------------------------------------|
|-----------------------------------------|
|-----------------------------------------|
|-----------------------------------------|
|--------------------x\\------------------|
|-----------------------------------------|

(Gtr 2)
|-----------------------------------------|
|---10-12--------------10-12--------------|
|-9-------9-12-9-----9-------9-12-9---11--|
|-----------------------------------------|
|-----------------------------------------|
|-----------------------------------------|

(Gtr 1)
|-------------------------------------|
|-------------------------------------|
|-------------7--7-7------------5--7--|
|-0h2-2-2-2-2-7--7-7--7/9--9--9-5--7--|
|-0h2-2-2-2-2-5--5-5--7/9--9--9-3--5--|
|-----0-0-0-0-5--5-5--5/7--7--7-3--5--| 4x

(Gtr 2)
|-----------12---------------------------------------
|---10-12------13--13/15-12--------------------------
|-9-------9------------------12--11--11h12p11-9------
|------------------------------------------------12--
|----------------------------------------------------
|----------------------------------------------------

 -----------12---------------------------------------
 ---10-12------13--13/15-12--------------------------
 -9-------9------------------12--11--11h12-----------
 -------------------------------------------10--12---
 ----------------------------------------------------
 ----------------------------------------------------

 -----------12---------------------------------------
 ---10-12------13--13/15-12--------------------------
 -9-------9------------------12--11--11h12p11-9------
 ------------------------------------------------12--
 ----------------------------------------------------
 ----------------------------------------------------

 -----------12---------------------------------------|
 ---10-12------13--13/15-12--------------------------|
 -9-------9------------------12--11--11h12p11-9------|
 ----------------------------------------------------|
 ----------------------------------------------------|
 ----------------------------------------------------|

(Gtr 1)
|-------------------------------------------|
|-------------------------------------------|
|-------------7-7-7-7-7-7-------------5--7--|
|-0h2-2-2-2-2-7-7-7-7-7-7-7/9-9-9-9-9-5--7--|
|-0h2-2-2-2-2-5-5-5-5-5-5-7/9-9-9-9-9-3--5--|
|-----0-0-0-0-5-5-5-5-5-5-5/7-7-7-7-7-3--5--| 4x

(Gtr 2)
|---------------------------------------------------------
|-10-----12-----13-----12-----10-----12-----10-----12-----
|----9-9----9-9----9-9----9-9----9-9----9-9----9-9----9-9-
|---------------------------------------------------------
|---------------------------------------------------------
|---------------------------------------------------------

 ---------------------------------------------------------|
 -10-----12-----13-----12-----10--------------------------|
 ----9-9----9-9----9-9----9-9----9-9-12p9-9-11p9-9-12p9-9-|
 ---------------------------------------------------------|
 ---------------------------------------------------------|
 ---------------------------------------------------------| 2x

(Gtr 1)
|-----------------------------------------|
|-----------------------------------------|
|-----------------------------------------|
|-2---------------------------------------|
|-2---------------------------------------|
|-0---------------------------------------|

(Gtr 2)
|-----------------------------------------|
|-----------------------------------------|
|-9---------------------------------------|
|-----------------------------------------|
|-----------------------------------------|
|-----------------------------------------|

  Visit MetalTabs.com for more metal tablature

bottom separator

Contact Us | Privacy Policy | Disclaimer | Legal Notice
Copyright © 2001-2014 MetalTabs.com. All Rights Reserved.