top separator

Home

Forum

What's New

Submit a Tab

FAQ

Links

Contact Us

Link to Us

MuSpy.com

MetalTabs.com logo

Bands

0-9

A

B

C

D

E

F

G

H

I

J

K

L

M

N

O

P

Q

R

S

T

U

V

W

X

Y

Z

Search

What

Where
 

Cruachan - "Spancill Hill" Guitar Tab

Plain Text Version
More Cruachan Tabs

Hits: 7757
Rated: 4.83 out of 5 (6 votes)
Updated: 2003-08-11 14:01:35

 

By:

Darkenelf

sendpm.gif

email.gif

Important note
This tab is available online because we obtained explicit permission from Cruachan or their label.


#----------------------------------PLEASE NOTE---------------------------------#
#This file is the author's own work and represents their interpretation of the #
#song. You may only use this file for private study, scholarship, or research. #
#Unless specified otherwise, this is NOT an official tab from the band members.#
#------------------------------------------------------------------------------#

  Visit MetalTabs.com for more metal tablature
  
Band: Cruachan
Album: Folklore
Song: Spancill Hill
Tabbed by: Martijn Wietsma (Darkenelf)
Tab Date: 03-08-2003
Email: dalvanian@yahoo.com

Standard E Tuning

intro (keyboard)
|-----------------------------------------------------|
|-----------------------------------------------------|
|-12~--10~--------------------------------------------|
|-----------8~--10~-----------------------------------|
|-----------------------------------------------------|
|-----------------------------------------------------|

riff A (0:16) (acoustic)
|-----------------------------------------------------|
|-----------------------------------------------------|
|-12-12----12--12-10-7-----------10-10----------------|
|-------10-------------8---10-12-------10--8h10-------|
|-----------------------------------------------------|
|-----------------------------------------------------|

riff B
|-----------------------------------------------------|
|-------13-13-15-13--------------------------13-------|
|-12-12-------------15-12---14-15--17-15--12----------|
|-----------------------------------------------------|
|-----------------------------------------------------|
|-----------------------------------------------------|

riff C
|-----------------------------------------------------|
|-------13-13-15-13-----------------------------------|
|-12-12-------------15-12---14-14--17-15p14p12-10-----|
|-----------------------------------------------------|
|-----------------------------------------------------|
|-----------------------------------------------------|

repeat riff A + B + C till on CD-track time 3:58

riff D (distortion comes in) (solo)
|-----------------------------------------------------|
|-----------------------------------------------------|
|-----------------------------------------------------|
|-5-5---5--5-3-0---------3--3-------------------------|
|-----3----------1---3-5------3--1/3------------------|
|-----------------------------------------------------|

riff E (4:11) (solo)
|-----------------------------------------------------|
|---------3-------------------------------------------|
|-----5-5---5-3-------------7h8p7----5----------------|
|-5-5-----------5--7h8--10p--------5------------------|
|-----------------------------------------------------|
|-----------------------------------------------------|

riff F (4:21) (solo)
|-----------------------------------------------------|
|---------3-------------------------------------------|
|-----5-5---5-3---------------------------------------|
|-5-5-----------5--7-8--10p8p7--5-3-------------------|
|-----------------------------------------------------|
|-----------------------------------------------------|

riff D (solo)
|-----------------------------------------------------|
|-----------------------------------------------------|
|-----------------------------------------------------|
|-5-5---5--5-3-0---------3--3-------------------------|
|-----3----------1---3-5------3--1/3------------------|
|-----------------------------------------------------|
					(2x)
riff E (4:11) (solo)
|-----------------------------------------------------|
|---------3-------------------------------------------|
|-----5-5---5-3-------------7h8p7----5----------------|
|-5-5-----------5--7h8--10p--------5------------------|
|-----------------------------------------------------|
|-----------------------------------------------------|

riff F (4:21) (solo)
|-----------------------------------------------------|
|---------3-------------------------------------------|
|-----5-5---5-3---------------------------------------|
|-5-5-----------5--7-8--10p8p7--5-3-------------------|
|-----------------------------------------------------|
|-----------------------------------------------------|

riff D (solo)
|-----------------------------------------------------|
|-----------------------------------------------------|
|-----------------------------------------------------|
|-5-5---5--5-3-0---------3--3-------------------------|
|-----3----------1---3-5------3--1/3------------------|
|-----------------------------------------------------|

riff A (From here it's acoustic again)
|-----------------------------------------------------|
|-----------------------------------------------------|
|-12-12----12--12-10-7-----------10-10----------------|
|-------10-------------8---10-12-------10--8h10-------|
|-----------------------------------------------------|
|-----------------------------------------------------|

riff B
|-----------------------------------------------------|
|-------13-13-15-13--------------------------13-------|
|-12-12-------------15-12---14-15--17-15--12----------|
|-----------------------------------------------------|
|-----------------------------------------------------|
|-----------------------------------------------------|

riff C
|-----------------------------------------------------|
|-------13-13-15-13-----------------------------------|
|-12-12-------------15-12---14-14--17-15p14p12-10-----|
|-----------------------------------------------------|
|-----------------------------------------------------|
|-----------------------------------------------------|

riff A
|-----------------------------------------------------|
|-----------------------------------------------------|
|-12-12----12--12-10-7-----------10-10----------------|
|-------10-------------8---10-12-------10--8h10-------|
|-----------------------------------------------------|
|-----------------------------------------------------|

  Visit MetalTabs.com for more metal tablature

bottom separator

Contact Us | Privacy Policy | Disclaimer | Legal Notice
Copyright © 2001-2014 MetalTabs.com. All Rights Reserved.