top separator

Home

Forum

What's New

Submit a Tab

FAQ

Links

Contact Us

Link to Us

MetalTabs.com logo

Bands

0-9

A

B

C

D

E

F

G

H

I

J

K

L

M

N

O

P

Q

R

S

T

U

V

W

X

Y

Z

Search

What

Where
 

Cruachan - "Celtica (Voice Of The Morrigan)" Guitar Tab

Plain Text Version
More Cruachan Tabs

Hits: 5420
Rated: 5.00 out of 5 (5 votes)
Updated: 2005-09-14 20:59:54

 

By:

Darkenelf

sendpm.gif

email.gif

Important note
This tab is available online because we obtained explicit permission from Cruachan or their label.


#----------------------------------PLEASE NOTE---------------------------------#
#This file is the author's own work and represents their interpretation of the #
#song. You may only use this file for private study, scholarship, or research. #
#Unless specified otherwise, this is NOT an official tab from the band members.#
#------------------------------------------------------------------------------#

  Visit MetalTabs.com for more metal tablature
  
Band: Cruachan
Album: The Middle Kingdom
Song: Celtica, Voice of the Morrigan
Tabbed by: Martijn Wietsma
Tab Date: 29-05-2005 (redo of whole song)
Email: asmundr@vikingblood.net
Tuning: E|A|D|G|B|E


riff A (0:31)
|--------------------------------------------------------|
|--------------------------------------------------------|
|-----------------2-------2----2-2-----------------------|(8x)
|-2-------5-------2-------2----2-2-----------------------|
|-2-------3-3333--0-0000--0-00-0-0-----------------------|
|-0-0000-------------------------------------------------|
    ....    ....    ....    ..

riff B (1:14)
|--------------------------------------------------------|
|--------------------------------------------------------|
|--------------------------------------------------------|(1x)
|-2----2--5-5---5----------------------------------------|
|-2----2--3-3-3-3-33--7------7----7-7--------------------|
|-0-00-0--------------5-5555-5-55-5-5--------------------|
    ..        .   ..    ....   ..

Repeat riff A 1x (1:20)

riff C (1:25)
|--------------------------------------------------------|
|--------------------------------------------------------|
|--------------------------------------------------------|(2x)
|---------------5----5-----------------------------------|
|----2----2--33-3-33-3----7----7----7----7---------------|
|-00-0-00-0------------55-5-55-5-55-5-55-5---------------|
  ..   ..    ..   ..   ..   ..   ..   ..

riff D (1:36)
|--------------------------------------------------------|
|--------------------------------------------------------|
|--------------------------------------------------------|(2x)
|-------2----2-222---------2-----------------------------|
|-9-----2----2-222---9-----2-3----3--333-----------------|
|-7-77--0-00-0-000---7-77--0-1-11-1--111-----------------|
    ..    ..           ..      ..

riff E (1:46)
|--------------------------------------------------------|
|--------------------------------------------------------|
|--------------------------------------------------------|(2x)
|-------5-----4------------------------------------------|
|-9-----3-33--2-22--7------------------------------------|
|-7-77--------------5-55---------------------------------|
    ..    ..    ..    ..

riff F (1:52)
|--------------------------------------------------------|
|--------------------------------------------------------|
|--------------------------------------------------------|(2x)
|-----55--44---------------------------------------------|
|-99--33--22--77-----------------------------------------|
|-77----------55-----------------------------------------|

Repeat riff D 2x (1:58)
Repeat riff E 2x (2:08)
Repeat riff F 2x

riff G (2:18)
|--------------------------------------------------------|
|--------------------------------------------------------|
|--------------------------------------------------------|(1x)
|--------------------------------------------------------|
|--------------------------------------------------------|
|-7-5h7-0--2h3-0--2h3h5---7-5h7-0--2h3p2p0-00------------|

riff H (2:24)
|--------------------------------------------------------|
|--------------------------------------------------------|
|--------------------------------------------------------|(8x)
|--------------------------------------------------------|
|-2-----------------7---------5--------------------------|
|-0-000-000-000-00--5-555-55--3-333-33-------------------|
  . ... ... ... ..  . ... ..  . ... ..

Keyboard riff (3:07)

Repeat riff A 8x (4:00)
Repeat riff D 2x (4:32)
Repeat riff E 2x (4:42)
Repeat riff F 2x (4:48)
Repeat riff D 2x (4:53)
Repeat riff E 2x (5:04)
Repeat riff F 2x (5:09)

Keyboard riff (5:14)

(End of Song)

  Visit MetalTabs.com for more metal tablature

bottom separator

Contact Us | Privacy Policy | Disclaimer | Legal Notice
Copyright © 2001-2014 MetalTabs.com. All Rights Reserved.